Oops, an error
Loading. Please wait.

Sunday Acoustic tab

version 2
version 2

Whole song

Interactive

11,347 views 15 this week
4 commentsread comments
1 2 3 4 5
x 7
add to favorites
×
Save as Personal and add changes to this tab that will be seen only by you. Learn more ›
×
You can save this tab as Personal to edit and correct it or add notes. All changes will be seen only by you. Learn more »
launch autoscroll
font size
0
reset
how to read this tab
guitar tuner
backing track
0:00
0:00
edit
Autoscroll
slow
fast
+/-
esc
set tempo
stop
Author
Difficulty
-------------------------------------------------------------------------------
                             BLOC PARTY - Sunday
-------------------------------------------------------------------------------
Tabbed by: MiKi
Email: miki.ross@gmail.com

Tuning: EADGBe

I figured this tab out watching many acoustic sessions from the band. I'm sure this is 
Russell plays. The song is composed by several arpeggios and some chords in the chorus, 
simple.

The reason I have tabbed it this way is that I don't want to get eternal here, writing 
arpeggio every single time it has to be played. Maybe it is harder to read this way, but 
easier to tab, and you'll get to it very very fast.


   Riff 1 (let's call them R1...R2...)
e|-----------------------------|
B|-----------------------------|
G|-----------11----------------|
D|------12-------12----12------|
A|--10-----10-------10---------|
E|-----------------------------|

   Riff 2 (R2)
e|-----------------------------|
B|----------3------------------|
G|-----5------5----5-----------|
D|-----------------------------|
A|--3----3------3--------------|
E|-----------------------------|

   Riff 3 (R3)
e|-----------------------------|
B|-----------------------------|
G|----------7------------------|
D|-----5------5----5-----------|
A|--7----7------7--------------|
E|-----------------------------|

   Riff 4 (R4)
e|-----------------------------|
B|-----------------------------|
G|----------4------------------|
D|-----4------4----4-----------|
A|--5----5------5--------------|
E|-----------------------------|

   Riff 5 (R5)
e|-----------------------------|
B|----------1------------------|
G|-----0------0----0-----------|
D|-----------------------------|
A|--0----0------0--------------|
E|-----------------------------|

   Riff 6 (R6)
e|-----------------------------|
B|----------3------------------|
G|-----2------2----2-----------|
D|-----------------------------|
A|--2----2------2--------------|
E|-----------------------------|

  Riff 7 (R7)
e|-----------------------------|
B|----------8------------------|
G|-----7------7----7-----------|
D|-----------------------------|
A|--7----7------7--------------|
E|-----------------------------|


Intro: R1 x2  R2 x2
       R1 x2  R2 x2


   R1 x2        R2 x2
Heavy night, it was a heavy night
    R1 x2       R2 x2
Feels like we've come back from the dead
   R1 x2        R2 x2
Heavy night, it was a heavy night
   R1 x2       R2 x2
I cannot remember what I said to anyone
   R3        R1         R2            R4
If we get up now we can catch the afternoon
          R3     R1          R2        R5
Watch the under 15s playing football in the park
      R3        R1                 R2        R4
Let's sit in St. Leonard's on this alcoholic day
      R6        R7             R5        B5
We're doing the best with what we've got


B5                 C        D     Em     G
I love you in the morning ,
G                  C        G     Em     G
When you're still hung over
G                  C        D     Em     G
I love you in the morning,
G                  C        G     Em     G
When you're still strung out,

Break: R1 x2 R2 x2

R1 x2                 R2 x2
I work hard all week and so do you
     R1 x2    R2 x2
We deserve to let off some steem
R1 x2         R2 x2
Less orthodox creeping
R1 x2             R2 x2
We need to rage through this life
    R3         R1           R2           R4
There might be ones who are smarter than you
     R3             R1            R2          R5
That have the right answers, that wear better shoes
R3     R1          R2        R4
Forget about those melting ice caps
     R6         R7            R5         B5
We're doing the best with what we've got


B5                  C      D      Em    G
I love you in the morning ,
G                   C        G    Em    G
When you're still hung over
G                   C      D      Em    G
I love you in the morning,
G                   C         G   Em    G
When you're still strung out,


              C          D
With I'm with you, I am calm
   Em          G
A pearl in your oyster
           C               G
Head on my chest, a silent smile
          Em           G
A private kind of happiness
         C             D
You see, giant proclamations
    Em        G
Are all very well
         C  G         Em
But our love is louder than words


C     D    Em    G

I love you in the morning
C     G    Em    G


End on G


any doubts or corrections... mail!

have fun.

            
            
Suggest correction
Creating personal tab
Creating personal tab
You can edit any tab online and save it as your Personal.

You can edit, replace or remove any tab part or add personal notes – all changes will be seen only by you.

Personal tabs can be accessed anytime from any device, even offline.
Learn more »
comments
print report bad tab
4 comments total. Showing first comments.
0 reply
Niall_C 16 May 24, 2008 04:16 AM

Excellent tab man! Just to clear up the bridge; "With you I am calm..." goes like:

C D Em G
e|--------------------------------------------------------------|
B|--5------------7-------------8------------12------------------|
G|--5------------7-------------9------------12------------------|
D|--5------------7-------------9------------12------------------|
A|--3------------5-------------7------------10------------------|
E|--------------------------------------------------------------|

C G Em G
e|-------------------------------------------------------------|
B|--5------------12------------8------------12-----------------|
G|--5------------12------------9------------12-----------------|
D|--5------------12------------9------------12-----------------|
A|--3------------10------------7------------10-----------------|
E|-------------------------------------------------------------|

C D Em G
e|--------------------------------------------------------------|
B|--5------------7-------------8------------12------------------|
G|--5------------7-------------9------------12------------------|
D|--5------------7-------------9------------12------------------|
A|--3------------5-------------7------------10------------------|
E|--------------------------------------------------------------|

C G Em G
e|-------------------------------------------------------------------|
B|--5------------12------------8------------12-12-12-12-13-13-13-13--|
G|--5------------12------------9------------12-12-12-12-12-12-12-12--|
D|--5------------12------------9------------12-12-12-12-12-12-12-12--|
A|--3------------10------------7------------10-10-10-10-10-10-10-10--|
E|-------------------------------------------------------------------|

5 stars! :D

+1 reply
mattsem 46 Jul 19, 2008 02:01 PM

nice, but ii think riff 2 is more like:

e|-------------------------------------------|
B|-----------3-------------------------------|
G|-------5-----5---5-------------------------|
D|-----5---5---------------------------------|
A|---3---------------------------------------|
E|-------------------------------------------------------------------|

0 reply
mattsem 46 Jul 19, 2008 02:02 PM

oh no sorry guys, the last 5 should be on the D string!

guest
You may want to rate the tab now too:
select rating
Wanna post a correction for this tab? Suggest correction