Oops, an error
Loading. Please wait.

Talons Bass Tab

version 1
version 1

Whole song

Interactive

4,189 views 1 this week
no commentswrite comment
1 2 3 4 5
x 4
add to favorites
launch autoscroll
font size
0
reset
guitar tuner
Autoscroll
slow
fast
+/-
esc
set tempo
stop
Help us to improve Ultimate-Guitar.com Take our survey!
×
Author
Difficulty
novice
The new single, and its the biz!!!!

Intro 1
G|--------------------------------|
D|--------------------------------|
A|5-5~-----5-5-5----5-5~-----5-5-5|
E|--------------------------------|

Intro 2/Chorus
G|--------------------------------|
D|----7---------------------------|
A|5555-3553330000011111111--------|
E|------------------------33333333|

G|--------------------------------|
D|--------------------------------|
A|55555555333000001111111133333333|
E|--------------------------------|

No Bass in verse 1

Pre-Chorus "I have been wicked!"
G|----------------------------------------------|
D|----------8-7-----------------8-7-------------|
A|5~---5~-------8-5---5~---5~-------8-1/33-3-333|
E|------------------8---------------------------|

Chorus is just Intro played twice.

Again, no bass in verse 2

Pre-Chorus 2 is same as first

Chorus

Break
G|------------------------------------|
D|---------------------------8-7------|
A|5~-------5~-------5~----------------|
E|------------------------------------|x2

Bridge
G|--------------------------------|
D|--------33333333----------------|
A|11111111--------33333333--------|
E|------------------------33333333|x2

G|----------------------------------------------------------------|
D|---33300--------2222222200000000---33300--------2222222222222222|
A|111--------33355----------------111--------33355----------------|
E|--------111-----------------------------111---------------------|

On the last chorus, play this for the last two times
G|--------------------------------|
D|----------------55555---88888888|
A|55555---88888--------555--------|
E|-----555-----888----------------|
Finish on 5th fret on A string (D)
Thats all. Great song, great band.
Suggest correction
comments
print report bad tab
guest
You may want to rate the tab now too:
select rating
Wanna post a correction for this tab? Suggest correction