Oops, an error
Loading. Please wait.

This Modern Love tab

version 2
version 2
11,900 views 9 this week
2 commentsread comments
1 2 3 4 5
x 5
add to favorites
×
Save as Personal and add changes to this tab that will be seen only by you. Learn more ›
×
You can save this tab as Personal to edit and correct it or add notes. All changes will be seen only by you. Learn more »
launch autoscroll
font size
0
reset
how to read this tab
guitar tuner
edit
Autoscroll
slow
fast
+/-
esc
set tempo
stop
Author
Difficulty
Bloc Party-The Modern Love



Gtr I (E A D G B E) - 'Kele'
Gtr II (E A D G B E) - 'Russel'
Gtr III (E A D G B E) - 'Russel PT 2'
   Intro & Verse
    Q=159
    C                                     B
   4/4
    Gtr I
    E  E  E  E  E  E  E  E    E  E  E  E  E  E  E  E
||-----0-----0-----0-----0--|----0-----0-----0-----0--|
||o-------------------------|-------------------------|
||--------------------------|-------------------------|
||--------------------------|-------------------------|
||o-3-(3)-3-(3)-3-(3)-3-(3)-|-3-(3)-3-(3)-2-(2)-2-(2)-|
||--------------------------|-------------------------|


                            F                 E
  E  E  E  E  E  E  E  E    E  E  E  E  E  E  E  E
|----0-----0-----0-----0--|----0-----0-----0-----0--|
|-------------------------|-------------------------|
|-------------------------|-------------------------|
|-2-(2)-2-(2)-2-(2)-2-(2)-|-3-(3)-3-(3)-3-(3)-2-(2)-|
|-------------------------|-------------------------|
|-------------------------|-------------------------|


  C                                     B
  E  E  E  E  E  E  E  E    E  E  E  E  E  E  E  E
|----0-----0-----0-----0--|----0-----0-----0-----0--|
|-------------------------|-------------------------|
|-------------------------|-------------------------|
|-------------------------|-------------------------|
|-3-(3)-3-(3)-3-(3)-3-(3)-|-3-(3)-3-(3)-2-(2)-2-(2)-|
|-------------------------|-------------------------|


  A
  E  E  E  E  E  E  E  E   4x
|----0-----0-----0-----0---||
|-------------------------o||
|--------------------------||
|--------------------------||
|-0-(0)-0-(0)-0-(0)-0-(0)-o||
|--------------------------||


   Verse
    C                                           B
     E  E   E  E   E  E   E  E     E  E   E  E   E  E   E  E
||------0------0------0------0--|-----0------0------0------0--|
||o-----------------------------|-----------------------------|
||------------------------------|-----------------------------|
||------------------------------|-----------------------------|
||o--3-(3)--3-(3)--3-(3)--3-(3)-|--3-(3)--3-(3)--2-(2)--2-(2)-|
||------------------------------|-----------------------------|
|
|   Gtr II
|    Q      Q      Q      Q        Q      Q      Q      Q
||------------------------------|-----------------------------|
||o-13------------13------------|-12------------13------------|
||---------12------------12-----|--------12------------12-----|
||------------------------------|-----------------------------|
||o-----------------------------|-----------------------------|
||------------------------------|-----------------------------|


                                F                    E
   E  E   E  E   E  E   E  E     E  E   E  E   E  E   E  E
|-----0------0------0------0--|-----0------0------0------0---|
|-----------------------------|------------------------------|
|-----------------------------|------------------------------|
|--2-(2)--2-(2)--2-(2)--2-(2)-|--3-(3)--3-(3)--3-(3)--2-(2)--|
|-----------------------------|------------------------------|
|-----------------------------|------------------------------|
|
|  Q      Q      Q      Q        Q      Q      Q      Q
|-----------------------------|------------------------------|
|-13------------13------------|-12------------13-------------|
|--------12------------12-----|--------12------------12------|
|-----------------------------|------------------------------|
|-----------------------------|------------------------------|
|-----------------------------|------------------------------|


  C                                           B
   E  E   E  E   E  E   E  E     E  E   E  E   E  E   E  E
|-----0------0------0------0--|-----0------0------0------0--|
|-----------------------------|-----------------------------|
|-----------------------------|-----------------------------|
|-----------------------------|-----------------------------|
|--3-(3)--3-(3)--3-(3)--3-(3)-|--3-(3)--3-(3)--2-(2)--2-(2)-|
|-----------------------------|-----------------------------|
|
|  Q      Q      Q      Q        Q      Q      Q      Q
|-----------------------------|-----------------------------|
|-13------------13------------|-12------------13------------|
|--------12------------12-----|--------12------------12-----|
|-----------------------------|-----------------------------|
|-----------------------------|-----------------------------|
|-----------------------------|-----------------------------|


  A
   E  E   E  E   E  E   E  E   4x
|-----0------0------0------0---||
|-----------------------------o||
|------------------------------||
|------------------------------||
|--0-(0)--0-(0)--0-(0)--0-(0)-o||
|------------------------------||
|
|  Q      Q      Q      Q      4x
|------------------------------||
|-13------------13------------o||
|--------12------------12------||
|------------------------------||
|-----------------------------o||
|------------------------------||


   Chorus
    A                                          G
     E  E   E  E   E  E  E  E     E  E   E  E   E  E    E   E
||-----------------------------|-------------------------------|
||o----------------------------|-------------------------------|
||-----(2)----(2)----(2)---(2)-|----(2)----(2)----(0)------(0)-|
||-----------------------------|-------------------------------|
||o--0------0------0-----0-----|--0------0---------------------|
||-----------------------------|----------------3-------3------|
|
|    E  E   Q      E  E  Q        E  E   E  E   Q      +E   E
||-----------------------------|-------------------------------|
||o----------------------------|-------------------------------|
||----------------12-10--9-----|-----9-------------------------|
||--10-10--10------------------|-12-----10-10--10-----(10)-12--|
||o----------------------------|-------------------------------|
||-----------------------------|-------------------------------|


  C                            D                   C
   E  E   E  E   E  E  E  E    E  E   E  E  E   E  E  E
|----------------------------|----------------------------|
|----------------------------|----------------------------|
|----(5)----(5)----(5)---(5)-|---(7)----(7)----(7)---(5)--|
|----------------------------|----------------------------|
|--3------3------3-----3-----|-5------5-----5------3------|
|----------------------------|----------------------------|
|
|  E  E   Q      E  E  E  E    E  E   E  Q     +Q     E
|----------------------------|----------------------------|
|----------------------------|----------------------------|
|---------------12-10--9-----|-9--------------------------|
|-10-10--10--------------12--|---10--10-10----(10)---12---|
|----------------------------|----------------------------|
|----------------------------|----------------------------|


  A                                          G
   E  E   E  E   E  E  E  E     E  E   E  E   E  E    E   E
|----------------------------|-------------------------------|
|----------------------------|-------------------------------|
|----(2)----(2)----(2)---(2)-|----(2)----(2)----(0)------(0)-|
|----------------------------|-------------------------------|
|--0------0------0-----0-----|--0------0---------------------|
|----------------------------|----------------3-------3------|
|
|  E  E   Q      E  E  Q        E  E   E  E   Q      +E   E
|----------------------------|-------------------------------|
|----------------------------|-------------------------------|
|---------------12-10--9-----|-----9-------------------------|
|-10-10--10------------------|-12-----10-10--10-----(10)-12--|
|----------------------------|-------------------------------|
|----------------------------|-------------------------------|


  C
   E  E   E  E   E  E   E  E
|------------------------------||
|-----------------------------o||
|----(5)----(5)----(5)----(5)--||
|------------------------------||
|--3------3------3------3-----o||
|------------------------------||
|
|  E  E   Q      E  E   Q
|------------------------------||
|-----------------------------o||
|---------------10--9--12------||
|-10-10--10--------------------||
|-----------------------------o||
|------------------------------||


   Verse
    C                                           B
     E  E   E  E   E  E   E  E     E  E   E  E   E  E   E  E
||------0------0------0------0--|-----0------0------0------0--|
||o-----------------------------|-----------------------------|
||------------------------------|-----------------------------|
||------------------------------|-----------------------------|
||o--3-(3)--3-(3)--3-(3)--3-(3)-|--3-(3)--3-(3)--2-(2)--2-(2)-|
||------------------------------|-----------------------------|
|
|    Q      Q      Q      Q        Q      Q      Q      Q
||------------------------------|-----------------------------|
||o-13------------13------------|-12------------13------------|
||---------12------------12-----|--------12------------12-----|
||------------------------------|-----------------------------|
||o-----------------------------|-----------------------------|
||------------------------------|-----------------------------|


                                F                    E
   E  E   E  E   E  E   E  E     E  E   E  E   E  E   E  E
|-----0------0------0------0--|-----0------0------0------0---|
|-----------------------------|------------------------------|
|-----------------------------|------------------------------|
|--2-(2)--2-(2)--2-(2)--2-(2)-|--3-(3)--3-(3)--3-(3)--2-(2)--|
|-----------------------------|------------------------------|
|-----------------------------|------------------------------|
|
|  Q      Q      Q      Q        Q      Q      Q      Q
|-----------------------------|------------------------------|
|-13------------13------------|-12------------13-------------|
|--------12------------12-----|--------12------------12------|
|-----------------------------|------------------------------|
|-----------------------------|------------------------------|
|-----------------------------|------------------------------|


  C                                           B
   E  E   E  E   E  E   E  E     E  E   E  E   E  E   E  E
|-----0------0------0------0--|-----0------0------0------0--|
|-----------------------------|-----------------------------|
|-----------------------------|-----------------------------|
|-----------------------------|-----------------------------|
|--3-(3)--3-(3)--3-(3)--3-(3)-|--3-(3)--3-(3)--2-(2)--2-(2)-|
|-----------------------------|-----------------------------|
|
|  Q      Q      Q      Q        Q      Q      Q      Q
|-----------------------------|-----------------------------|
|-13------------13------------|-12------------13------------|
|--------12------------12-----|--------12------------12-----|
|-----------------------------|-----------------------------|
|-----------------------------|-----------------------------|
|-----------------------------|-----------------------------|


  A
   E  E   E  E   E  E   E  E   3x
|-----0------0------0------0---||
|-----------------------------o||
|------------------------------||
|------------------------------||
|--0-(0)--0-(0)--0-(0)--0-(0)-o||
|------------------------------||
|
|  Q      Q      Q      Q      3x
|------------------------------||
|-13------------13------------o||
|--------12------------12------||
|------------------------------||
|-----------------------------o||
|------------------------------||


    C
     E  E   E  E   E  E   E  E     E  E   E  E   E  E   E  E
||------0------0------0------0--|-----0------0------0------0--|
||o-----------------------------|-----------------------------|
||------------------------------|-----------------------------|
||------------------------------|-----------------------------|
||o--3-(3)--3-(3)--3-(3)--3-(3)-|--3-(3)--3-(3)--3-(3)--3-(3)-|
||------------------------------|-----------------------------|
|
|    Q      Q      Q      Q        Q      Q      Q      Q
||------------------------------|-----------------------------|
||o-13------------13------------|-12------------13------------|
||---------12------------12-----|--------12------------12-----|
||------------------------------|-----------------------------|
||o-----------------------------|-----------------------------|
||------------------------------|-----------------------------|


   E  E   E  E   E  E   E  E     E  E   E  E   E  E   E  E
|-----0------0------0------0--|-----0------0------0------0---|
|-----------------------------|------------------------------|
|-----------------------------|------------------------------|
|-----------------------------|------------------------------|
|--3-(3)--3-(3)--3-(3)--3-(3)-|--3-(3)--3-(3)--3-(3)--3-(3)--|
|-----------------------------|------------------------------|
|
|  Q      Q      Q      Q        Q      Q      Q      Q
|-----------------------------|------------------------------|
|-13------------13------------|-12------------13-------------|
|--------12------------12-----|--------12------------12------|
|-----------------------------|------------------------------|
|-----------------------------|------------------------------|
|-----------------------------|------------------------------|


  C                                           B
   E  E   E  E   E  E   E  E     E  E   E  E   E  E   E  E
|-----0------0------0------0--|-----0------0------0------0--|
|-----------------------------|-----------------------------|
|-----------------------------|-----------------------------|
|-----------------------------|-----------------------------|
|--3-(3)--3-(3)--3-(3)--3-(3)-|--3-(3)--3-(3)--2-(2)--2-(2)-|
|-----------------------------|-----------------------------|
|
|  Q      Q      Q      Q        Q      Q      Q      Q
|-----------------------------|-----------------------------|
|-13------------13------------|-12------------13------------|
|--------12------------12-----|--------12------------12-----|
|-----------------------------|-----------------------------|
|-----------------------------|-----------------------------|
|-----------------------------|-----------------------------|


  A
   E  E   E  E   E  E   E  E
|-----0------0------0------0---||
|-----------------------------o||
|------------------------------||
|------------------------------||
|--0-(0)--0-(0)--0-(0)--0-(0)-o||
|------------------------------||
|
|  Q      Q      Q      Q
|------------------------------||
|-13------------13------------o||
|--------12------------12------||
|------------------------------||
|-----------------------------o||
|------------------------------||


   Chorus
    A                                          D
     E  E   E  E   E  E  E  E     E  E   E  E   E  E    E   E
||-----------------------------|-------------------------------|
||o----------------------------|-------------------------------|
||-----(2)----(2)----(2)---(2)-|----(2)----(2)----(0)------(0)-|
||-----------------------------|-------------------------------|
||o--0------0------0-----0-----|--0------0---------------------|
||-----------------------------|----------------3-------3------|
|
|    E  E   Q      E  E  Q        E  E   E  E   Q      +E   E
||-----------------------------|-------------------------------|
||o----------------------------|-------------------------------|
||----------------12-10--9-----|-----9-------------------------|
||--10-10--10------------------|-12-----10-10--10-----(10)-12--|
||o----------------------------|-------------------------------|
||-----------------------------|-------------------------------|


  C                            D                   C
   E  E   E  E   E  E  E  E    E  E   E  E  E   E  E  E
|----------------------------|----------------------------|
|----------------------------|----------------------------|
|----(5)----(5)----(5)---(5)-|---(7)----(7)----(7)---(5)--|
|----------------------------|----------------------------|
|--3------3------3-----3-----|-5------5-----5------3------|
|----------------------------|----------------------------|
|
|  E  E   Q      E  E  E  E    E  E   E  Q     +Q     E
|----------------------------|----------------------------|
|----------------------------|----------------------------|
|---------------12-10--9-----|-9--------------------------|
|-10-10--10--------------12--|---10--10-10----(10)---12---|
|----------------------------|----------------------------|
|----------------------------|----------------------------|


  A                                          G
   E  E   E  E   E  E  E  E     E  E   E  E   E  E    E   E
|----------------------------|-------------------------------|
|----------------------------|-------------------------------|
|----(2)----(2)----(2)---(2)-|----(2)----(2)----(0)------(0)-|
|----------------------------|-------------------------------|
|--0------0------0-----0-----|--0------0---------------------|
|----------------------------|----------------3-------3------|
|
|  E  E   Q      E  E  Q        E  E   E  E   Q      +E   E
|----------------------------|-------------------------------|
|----------------------------|-------------------------------|
|---------------12-10--9-----|-----9-------------------------|
|-10-10--10------------------|-12-----10-10--10-----(10)-12--|
|----------------------------|-------------------------------|
|----------------------------|-------------------------------|


  C
   E  E   E  E   E  E   E  E
|------------------------------||
|-----------------------------o||
|----(5)----(5)----(5)----(5)--||
|------------------------------||
|--3------3------3------3-----o||
|------------------------------||
|
|  E  E   Q      E  E   E  E
|------------------------------||
|-----------------------------o||
|---------------10--9--12------||
|-10-10--10---------------12---||
|-----------------------------o||
|------------------------------||


  A                                         G
   E  E   E  E  E  E  E  E     E  E   E  E   E  E    E   E
|---------------------------|-------------------------------|
|---------------------------|-------------------------------|
|----(2)----(2)---(2)---(2)-|----(2)----(2)----(0)------(0)-|
|---------------------------|-------------------------------|
|--0------0-----0-----0-----|--0------0---------------------|
|---------------------------|----------------3-------3------|
|
| Gtr III
|  Q      E  E  E  E  Q        E  E   E  E   Q      +E   E
|---------------------------|-------------------------------|
|---------------------------|-------------------------------|
|--------------12-10--9-----|-----9-------------------------|
|-10-----10-10--------------|-12-----10-10--10-----(10)-12--|
|---------------------------|-------------------------------|
|---------------------------|-------------------------------|
|
| Gtr II
|  Q      E  E  Q     E  E     E  E   E  E   Q       E   E
|--------------/7-----7--7--|--x--x---5--5---7-------7---7--|
|--1------1--1S=8-----8--8--|--x--x---6--6---8-------8---8--|
|---------------------------|-------------------------------|
|---------------------------|-------------------------------|
|---------------------------|-------------------------------|
|---------------------------|-------------------------------|


  C                            D                   C
   E  E   E  E   E  E  E  E    E  E   E  E  E   E  E  E
|----------------------------|---------------------------|
|----------------------------|---------------------------|
|----(5)----(5)----(5)---(5)-|---(7)----(7)----(7)---(5)-|
|----------------------------|---------------------------|
|--3------3------3-----3-----|-5------5-----5------3-----|
|----------------------------|---------------------------|
|
|  Q      E  E   E  E  E  E    E  E   E  Q     +Q     E
|----------------------------|---------------------------|
|----------------------------|---------------------------|
|---------------12-10--9-----|-9-------------------------|
|-10-----10-10-----------12--|---10--10-10----(10)---12--|
|----------------------------|---------------------------|
|----------------------------|---------------------------|
|
|  Q      E  E   Q     E  E    E  E   Q     E   E  Q
|----------------3-----1--0--|----0---------8------------|
|--1------1--1---------------|-3------1---------8--1-----|
|----------------------------|---------------------------|
|----------------------------|---------------------------|
|----------------------------|---------------------------|
|----------------------------|---------------------------|


  A                                         G
   E  E   E  E  E  E  E  E     E  E   E  E   E  E    E   E
|---------------------------|-------------------------------|
|---------------------------|-------------------------------|
|----(2)----(2)---(2)---(2)-|----(2)----(2)----(0)------(0)-|
|---------------------------|-------------------------------|
|--0------0-----0-----0-----|--0------0---------------------|
|---------------------------|----------------3-------3------|
|
|  Q      E  E  E  E  Q        E  E   E  E   Q      +E   E
|---------------------------|-------------------------------|
|---------------------------|-------------------------------|
|--------------12-10--9-----|-----9-------------------------|
|-10-----10-10--------------|-12-----10-10--10-----(10)-12--|
|---------------------------|-------------------------------|
|---------------------------|-------------------------------|
|
|  Q      E  E  Q     E  E     E  E   E  E   Q       E   E
|--------------/7-----7--7--|--x--x---5--5---7-------7---7--|
|--1------1--1S=8-----8--8--|--x--x---6--6---8-------8---8--|
|---------------------------|-------------------------------|
|---------------------------|-------------------------------|
|---------------------------|-------------------------------|
|---------------------------|-------------------------------|


  C
   E  E   E  E   E  E   E  E
|-----------------------------|
|-----------------------------|
|----(5)----(5)----(5)----(5)-|
|-----------------------------|
|--3------3------3------3-----|
|-----------------------------|
|
|  Q      E  E   E  E   Q
|-----------------------------|
|-----------------------------|
|---------------10--9--12-----|
|-10-----10-10----------------|
|-----------------------------|
|-----------------------------|
|
|  Q      E  Q      E   E  E
|-------------------7---5--7--|
|--1------1--1------8---6--8--|
|-----------------------------|
|-----------------------------|
|-----------------------------|
|-----------------------------|


  A                                     G
  E  E  E  E  E  E  E  E    E  E  E  E  E   E  E  E
|-------------------------|--------------------------|
|-------------------------|--------------------------|
|---(2)---(2)---(2)---(2)-|---(2)---(2)----(0)---(0)-|
|-------------------------|--------------------------|
|-0-----0-----0-----0-----|-0-----0------------------|
|-------------------------|-------------3------3-----|
|
| E  E  E  Q     E  E  E    E  E  E  E  E   E  Q
|-7--------8\----8--0-----|--------------------------|
|----8-----5-----5-----1--|----3--3--1--5\--3--3-----|
|-------5-----------------|-0-----------0------------|
|-------------------------|--------------------------|
|-------------------------|--------------------------|
|-------------------------|--------------------------|


  C                          D                C
  E   E  E  E  E  E  E  E    E  E E  E  E  E  E  E
|--------------------------|------------------------|
|--------------------------|------------------------|
|----(5)---(5)---(5)---(5)-|---(7)--(7)---(7)---(5)-|
|--------------------------|------------------------|
|-3------3-----3-----3-----|-5----5-----5-----3-----|
|--------------------------|------------------------|
|
| E   E  Q     E  E  E  E    E  Q    Q     E  Q
|--------------------------|------------------------|
|-3\--1--1-----1-----1--1--|-1--1S===3--------------|
|-----------------2--------|----2S===4-----2--0-----|
|--------------------------|------------------------|
|--------------------------|------------------------|
|--------------------------|------------------------|


  A                                    G             C
  E  E E  E  E  E  E  E    E  E  E  E  E  E  E  E    E  E  E  E  E  E  E  E
|------------------------|-------------------------|-------------------------||
|------------------------|-------------------------|-------------------------||
|---(2)--(2)---(2)---(2)-|---(2)---(2)---(0)---(0)-|---(5)---(5)---(5)---(5)-||
|------------------------|-------------------------|-------------------------||
|-0----0-----0-----0-----|-0-----0-----------------|-3-----3-----3-----3-----||
|------------------------|-------------3-----3-----|-------------------------||
|
| E  Q    Q     E  Q       Q     E  E  Q     E  E    E  E  Q     Q     E  E
|------------------------|-------------3-----1--0--|----0--------------------||
|-1--1S===3--------------|-1-----1--1--------------|-3-----1-----1-----1--3--||
|----2S===4-----2--0-----|-------------------------|-------------------------||
|------------------------|-------------------------|-------------------------||
|------------------------|-------------------------|-------------------------||
|------------------------|-------------------------|-------------------------||


 Guitar Solo
  Em/G
  Gtr I
   TP        TP           TP        TP
   H        +H            H        +H
|-/0--------(0)--------|-/0--------(0)---------|
|-/8--------(8)--------|-/8--------(8)---------|
|----------------------|-----------------------|
|----------------------|-----------------------|
|----------------------|-----------------------|
|----------------------|-----------------------|
|
| Gtrs II, III
|  E. E. E.     E. E E    E. E. E.     +E. E E
|--7---------------5-3-|--7--8-------------0---|
|-----8----------------|---------------------3-|
|--------7------9------|--------7------(7)-----|
|----------------------|-----------------------|
|----------------------|-----------------------|
|----------------------|-----------------------|


  C5/G
   TP        TP           TP        TP
   H        +H            H        +H
|-/8--------(8)--------|-/8--------(8)----------|
|-/8--------(8)--------|-/8--------(8)----------|
|----------------------|------------------------|
|----------------------|------------------------|
|----------------------|------------------------|
|----------------------|------------------------|
|
|  E. E. E.     E. E E    E. E. E.     +E. E E
|--7---------------5-3-|--7--8-------------0----|
|-----8----------------|---------------------3--|
|--------7------9------|--------7------(7)------|
|----------------------|------------------------|
|----------------------|------------------------|
|----------------------|------------------------|


  D5/A                                        E5/B
    TP              TP          TP              TP               TP
    H              +Q          +Q               H               +H
|-/10-------------(10)-------/(10)----------|-/12-------------/(12)----------------|
|-/10-------------(10)-------/(10)----------|-/12-------------/(12)----------------|
|-------------------------------------------|--------------------------------------|
|-------------------------------------------|--------------------------------------|
|-------------------------------------------|--------------------------------------|
|-------------------------------------------|--------------------------------------|
|
|   E  E  E  S  E       E  E        S  S  S     E  E  E  S  E        E  E  S  S  S
|-----------15---------------------15-------|-----------15----------------15-------|
|-------------------------------------15----|--------------------------------15----|
|--16h17-17----16h=====17-17-------------17-|--16h17-17----16h======17-17-------17-|
|-------------------------------------------|--------------------------------------|
|-------------------------------------------|--------------------------------------|
|-------------------------------------------|--------------------------------------|


  E#5/C               G5/D
    TP              TP                   TP           TP           TP           TP
    H               H                    Q           +Q            Q           +Q
|-/13-------------/12----------------|-/13----------(13)---------/15----------(15)----------||
|-/13-------------/12----------------|-/13----------(13)---------/15----------(15)----------||
|------------------------------------|------------------------------------------------------||
|------------------------------------|------------------------------------------------------||
|------------------------------------|------------------------------------------------------||
|------------------------------------|------------------------------------------------------||
|
|   E  E  E  S  E      E  E  S  S  S     S  S  S  S   S  S  S  S   S  S  S  S   S  S  S  S
|-----------20--------------20-15----|------------------------------------------------------||
|---------------------------------15-|------------------------------------------------------||
|--16h17-17----16h====17-17----------|--16h17-17-17--16h17-17-17--16h17-17-17--16h17-17-17--||
|------------------------------------|------------------------------------------------------||
|------------------------------------|------------------------------------------------------||
|------------------------------------|------------------------------------------------------||


   Breakdown
    C                                                     Em7/C
    Gtr I
     E   E   E   E   E   E   E   E     E   E   E   E   E   E   E   E
||----------------------------------|---------------------------------|
||o-(1)-(1)-(1)-(1)-(1)-(1)-(1)-(1)-|-(1)-(1)-(1)-(1)-(1)-(3)-(3)-(3)-|
||--(0)-(0)-(0)-(0)-(0)-(0)-(0)-(0)-|-(0)-(0)-(0)-(0)-(0)-(0)-(0)-(0)-|
||--(2)-(2)-(2)-(2)-(2)-(2)-(2)-(2)-|-(2)-(2)-(2)-(2)-(2)-(2)-(2)-(2)-|
||o-(3)-(3)-(3)-(3)-(3)-(3)-(3)-(3)-|-(3)-(3)-(3)-(3)-(3)-(3)-(3)-(3)-|
||----------------------------------|---------------------------------|
|
|   Gtr II
|    E   E   E   E  +E   E   E  +E     Q      +Q       E   E   E   E
||---0---0---0---0--(0)--0---0--(0)-|--0------(0)------0---0---0---0--|
||o--1---1---1---0--(0)--1---3--(3)-|--1------(1)------0---1---3---0--|
||----------------------------------|---------------------------------|
||----------------------------------|---------------------------------|
||o---------------------------------|---------------------------------|
||----------------------------------|---------------------------------|


  C                                                     Em7/C
   E   E   E   E   E   E   E   E     E   E   E   E   E   E   E   E
|---------------------------------|----------------------------------|
|-(1)-(1)-(1)-(1)-(1)-(1)-(1)-(1)-|-(1)-(1)-(1)-(1)-(1)-(3)-(3)-(3)--|
|-(0)-(0)-(0)-(0)-(0)-(0)-(0)-(0)-|-(0)-(0)-(0)-(0)-(0)-(0)-(0)-(0)--|
|-(2)-(2)-(2)-(2)-(2)-(2)-(2)-(2)-|-(2)-(2)-(2)-(2)-(2)-(2)-(2)-(2)--|
|-(3)-(3)-(3)-(3)-(3)-(3)-(3)-(3)-|-(3)-(3)-(3)-(3)-(3)-(3)-(3)-(3)--|
|---------------------------------|----------------------------------|
|
|  E   E   E   E  +E   E   E  +E     Q      +Q       E   E   E   E
|--0---0---0---0--(0)--0---0--(0)-|--0------(0)------0---0---0---0---|
|--1---1---1---0--(0)--1---3--(3)-|--1------(1)------0---1---3---0---|
|---------------------------------|----------------------------------|
|---------------------------------|----------------------------------|
|---------------------------------|----------------------------------|
|---------------------------------|----------------------------------|


  C                                                     Em7/C
   E   E   E   E   E   E   E   E     E   E   E   E   E   E   E   E
|---------------------------------|---------------------------------|
|-(1)-(1)-(1)-(1)-(1)-(1)-(1)-(1)-|-(1)-(1)-(1)-(1)-(1)-(3)-(3)-(3)-|
|-(0)-(0)-(0)-(0)-(0)-(0)-(0)-(0)-|-(0)-(0)-(0)-(0)-(0)-(0)-(0)-(0)-|
|-(2)-(2)-(2)-(2)-(2)-(2)-(2)-(2)-|-(2)-(2)-(2)-(2)-(2)-(2)-(2)-(2)-|
|-(3)-(3)-(3)-(3)-(3)-(3)-(3)-(3)-|-(3)-(3)-(3)-(3)-(3)-(3)-(3)-(3)-|
|---------------------------------|---------------------------------|
|
|  E   E   E   E   E   E   E   E     E   E   E   E   E   E   E   E
|--7---7---7---7---7---7---7---7--|--7---7---7---7---7---5---5---5--|
|--8---8---8---8---8---8---8---8--|--8---8---8---8---8---5---5---5--|
|--5---5---5---5---5---5---5---5--|--5---5---5---5---5---5---5---5--|
|---------------------------------|---------------------------------|
|---------------------------------|---------------------------------|
|---------------------------------|---------------------------------|


  C                                                     Em7/C
   E   E   E   E   E   E   E   E     E   E   E   E   E   E   E   E
|---------------------------------|----------------------------------||
|-(1)-(1)-(1)-(1)-(1)-(1)-(1)-(1)-|-(1)-(1)-(1)-(1)-(1)-(3)-(3)-(3)-o||
|-(0)-(0)-(0)-(0)-(0)-(0)-(0)-(0)-|-(0)-(0)-(0)-(0)-(0)-(0)-(0)-(0)--||
|-(2)-(2)-(2)-(2)-(2)-(2)-(2)-(2)-|-(2)-(2)-(2)-(2)-(2)-(2)-(2)-(2)--||
|-(3)-(3)-(3)-(3)-(3)-(3)-(3)-(3)-|-(3)-(3)-(3)-(3)-(3)-(3)-(3)-(3)-o||
|---------------------------------|----------------------------------||
|
|  E   E   E   E   E   E   E   E     E   E   E   E   E   E   E   E
|--7---7---7---7---7---7---7---7--|--7---7---7---7---7---5---5---5---||
|--8---8---8---8---8---8---8---8--|--8---8---8---8---8---5---5---5--o||
|--5---5---5---5---5---5---5---5--|--5---5---5---5---5---5---5---5---||
|---------------------------------|----------------------------------||
|---------------------------------|---------------------------------o||
|---------------------------------|----------------------------------||


  G/C                                                   Am/C
   E   E   E   E   E   E   E   E     E   E   E   E   E   E   E   E
|---------------------------------|---------------------------------|
|-(1)-(1)-(1)-(1)-(1)-(1)-(1)-(1)-|-(1)-(1)-(1)-(1)-(1)-(3)-(3)-(3)-|
|-(0)-(0)-(0)-(0)-(0)-(0)-(0)-(0)-|-(0)-(0)-(0)-(0)-(0)-(0)-(0)-(0)-|
|-(2)-(2)-(2)-(2)-(2)-(2)-(2)-(2)-|-(2)-(2)-(2)-(2)-(2)-(2)-(2)-(2)-|
|-(3)-(3)-(3)-(3)-(3)-(3)-(3)-(3)-|-(3)-(3)-(3)-(3)-(3)-(3)-(3)-(3)-|
|---------------------------------|---------------------------------|
|
|  E   E   E   E  +E   E   E  +E     Q      +Q       E   E   E   E
|--0---0---0---0--(0)--0---0--(0)-|--0------(0)------0---0---0---0--|
|--1---1---1---0--(0)--1---3--(3)-|--1------(1)------0---1---3---0--|
|---------------------------------|---------------------------------|
|---------------------------------|---------------------------------|
|---------------------------------|---------------------------------|
|---------------------------------|---------------------------------|


  G/C                                                   Am/C
   E   E   E   E   E   E   E   E     E   E   E   E   E   E   E   E
|---------------------------------|---------------------------------|
|-(1)-(1)-(1)-(1)-(1)-(1)-(1)-(1)-|-(1)-(1)-(1)-(1)-(1)-(3)-(3)-(3)-|
|-(0)-(0)-(0)-(0)-(0)-(0)-(0)-(0)-|-(0)-(0)-(0)-(0)-(0)-(0)-(0)-(0)-|
|-(2)-(2)-(2)-(2)-(2)-(2)-(2)-(2)-|-(2)-(2)-(2)-(2)-(2)-(2)-(2)-(2)-|
|-(3)-(3)-(3)-(3)-(3)-(3)-(3)-(3)-|-(3)-(3)-(3)-(3)-(3)-(3)-(3)-(3)-|
|---------------------------------|---------------------------------|
|
|  E   E   E   E  +E   E   E  +E     Q      +Q       E   E   E   E
|--0---0---0---0--(0)--0---0--(0)-|--0------(0)------0---0---0---0--|
|--1---1---1---0--(0)--1---3--(3)-|--1------(1)------0---1---3---0--|
|---------------------------------|---------------------------------|
|---------------------------------|---------------------------------|
|---------------------------------|---------------------------------|
|---------------------------------|---------------------------------|


  E5/CC
   E   E   E   E   E   E   E   E     E   E   E   E   E   E   E   E
|---------------------------------|---------------------------------|
|-(1)-(1)-(1)-(1)-(1)-(1)-(1)-(1)-|-(1)-(1)-(1)-(1)-(1)-(3)-(3)-(3)-|
|-(0)-(0)-(0)-(0)-(0)-(0)-(0)-(0)-|-(0)-(0)-(0)-(0)-(0)-(0)-(0)-(0)-|
|-(2)-(2)-(2)-(2)-(2)-(2)-(2)-(2)-|-(2)-(2)-(2)-(2)-(2)-(2)-(2)-(2)-|
|-(3)-(3)-(3)-(3)-(3)-(3)-(3)-(3)-|-(3)-(3)-(3)-(3)-(3)-(3)-(3)-(3)-|
|---------------------------------|---------------------------------|
|
|  E   E   E   E   E   E   E   E     E   E   E   E   E   E   E   E
|--7---8---7---8---7---8---7---8--|--7---8---7---8---7---8---7---8--|
|--5---5---5---5---5---5---5---5--|--5---5---5---5---5---5---5---5--|
|--5---5---5---5---5---5---5---5--|--5---5---5---5---5---5---5---5--|
|---------------------------------|---------------------------------|
|---------------------------------|---------------------------------|
|---------------------------------|---------------------------------|


  E5/C                                                          C
   E   E   E   E   E   E   E   E     E   E   E   E   E   E   E   E
|---------------------------------|---------------------------------||
|-(1)-(1)-(1)-(1)-(1)-(1)-(1)-(1)-|-(1)-(1)-(1)-(1)-(1)-(3)-(3)-(3)-||
|-(0)-(0)-(0)-(0)-(0)-(0)-(0)-(0)-|-(0)-(0)-(0)-(0)-(0)-(0)-(0)-(0)-||
|-(2)-(2)-(2)-(2)-(2)-(2)-(2)-(2)-|-(2)-(2)-(2)-(2)-(2)-(2)-(2)-(2)-||
|-(3)-(3)-(3)-(3)-(3)-(3)-(3)-(3)-|-(3)-(3)-(3)-(3)-(3)-(3)-(3)-(3)-||
|---------------------------------|---------------------------------||
|
|  E   E   E   E   E   E   E   E     E   E   E   E   E   E   E   E
|--7---7---7---7---7---7---7---7--|--7---7---7---7---7---7---7---8--||
|--5---5---5---5---5---5---5---5--|--5---5---5---5---5---5---5---5--||
|--5---5---5---5---5---5---5---5--|--5---5---5---5---5---5---5---5--||
|---------------------------------|---------------------------------||
|---------------------------------|---------------------------------||
|---------------------------------|---------------------------------||


 Outro
  C                             B
   E  E E E E E E E    E  E E E E E E E
|-----0---0---0---0-|-----0---0---0---0-|
|-------------------|-------------------|
|-------------------|-------------------|
|-------------------|-------------------|
|--3----3---3---3---|--3----3---2---2---|
|-------------------|-------------------|
|
| +W                  +W
|-(8)---------------|-(8)---------------|
|-(5)---------------|-(5)---------------|
|-(5)---------------|-(5)---------------|
|-------------------|-------------------|
|-------------------|-------------------|
|-------------------|-------------------|


  E                   F             E
   E  E E E E E E E    E  E E E E E E E
|-----0---0---0---0-|-----0---0---0---0-|
|-------------------|-------------------|
|-------------------|-------------------|
|--2----2---2---2---|--3----3---3---2---|
|-------------------|-------------------|
|-------------------|-------------------|
|
| +W                  +W
|-(8)---------------|-(8)---------------|
|-(5)---------------|-(5)---------------|
|-(5)---------------|-(5)---------------|
|-------------------|-------------------|
|-------------------|-------------------|
|-------------------|-------------------|


  C                         B         A
  E E E E E E E E   E E E E E E E E   E E E E E E E E
|---0---0---0---0-|---0---0---0---0-|---0---0---0---0-||
|-----------------|-----------------|-----------------||
|-----------------|-----------------|-----------------||
|-----------------|-----------------|-----------------||
|-3---3---3---3---|-3---3---2---2---|-0---0---0---0---||
|-----------------|-----------------|-----------------||


 End
  A                 C
  E E E E E E E E   W          +W           +W
|---0---0---0---0-|----------|------------|--------*|
|-----------------|----------|------------|--------*|
|-----------------|----------|------------|--------*|
|-----------------|----------|------------|--------*|
|-0---0---0---0---|-3--------|-(3)--------|-(3)----*|
|-----------------|----------|------------|--------*|


Duration Legend
---------------
W - whole; H - half; Q - quarter; E - 8th; S - 16th; T - 32nd; X - 64th; a - acciaccatura
+ - note tied to previous; . - note dotted; .. - note double dotted
Uncapitalized letters represent notes that are staccato (1/2 duration)
Irregular groupings are notated above the duration line
Duration letters will always appear directly above the note/fret number it represents the
duration for.  Duration letters with no fret number below them represent rests.  Multi-
bar rests are notated in the form Wxn, where n is the number of bars to rest for.  Low
melody durations appear below the staff

Tablature Legend
----------------
 h   - hammer-on
 p   - pull-off
 b   - bend
 pb  - pre-bend
 r   - bend release (if no number after the r, then release immediately)
 /\  - slide into or out of (from/to "nowhere")
 s   - legato slide
 S   - shift slide
<n> - natural harmonic
[n]  - artificial harmonic
n(n) - tapped harmonic
 ~   - vibrato
 tr  - trill
 T   - tap
 TP  - trem. picking
 PM  - palm muting
\n/  - tremolo bar dip; n = amount to dip
 \n  - tremolo bar down
 n/  - tremolo bar up
/n\  - tremolo bar inverted dip
 =   - hold bend; also acts as connecting device for hammers/pulls
 <> - volume swell (louder/softer)
 x   - on rhythm slash represents muted slash
 o   - on rhythm slash represents single note slash

Misc Legend
-----------
 |  - bar
||  - double bar
||o - repeat start
o|| - repeat end
*|  - double bar (ending)
 :  - bar (freetime)
 $  - Segno
 &  - Coda
Tempo markers - <E/E./Q/Q./H/H.> = BPM(8/16=s8/s16), where s8 = swing 8ths, s16 = swing 16ths

            
            
Suggest correction
Creating personal tab
Creating personal tab
You can edit any tab online and save it as your Personal.

You can edit, replace or remove any tab part or add personal notes – all changes will be seen only by you.

Personal tabs can be accessed anytime from any device, even offline.
Learn more »
comments
print report bad tab
2 comments total.
0 reply
bill-bones 10 Aug 18, 2006 08:06 PM

Looks and sounds perfik

0 reply
mdewitt21 10 Oct 22, 2007 12:46 PM

what i was able to understand was beautiful

guest
You may want to rate the tab now too:
select rating
Wanna post a correction for this tab? Suggest correction