Oops, an error
Loading. Please wait.

This Modern Love Bass Tab

version 4
version 4

Whole song

Interactive

2,149 views 1 this week
no commentswrite comment
1 2 3 4 5
please rate
add to favorites
launch autoscroll
font size
0
reset
guitar tuner
Tab Pro tools
  • play this tab
  • loop segment
  • change instrument
  • show fretboard
  • metronome
×
Best way to learn
"This Modern Love"
Autoscroll
slow
fast
+/-
esc
set tempo
stop
Contributor
Tabbed By : jaronthebassist

                             The Modern Love                               


                                                                 Bloc Party
Bass



      S S S S S S S S S S S S S S S S    S S S S S S S S S S S S S S S S  
G||-----9---9---9---9---9---9---9---9-|----9---9---9---9---9---9---9---9-|
D||*----------------------------------|----------------------------------|
A||*----------------------------------|--7---7---7---7---8---8---8---7---|
E||---8---8---8---8---8---8---7---7---|----------------------------------|


  S S S S S S S S S S S S S S S S    S S S S S S S S  4x
----9---9---9---9---9---9---9---9-|----9---9---9---9--||
----------------------------------|------------------*||
----------------------------------|--0---0---0---0---*||
--8---8---8---8---8---8---7---7---|-------------------||


    E   E   E   E   E   E   E   E      E   E   E   E   E   E   E   E   
---17------17------16------17------|--17------17------16------17------|
*------17------17------17------17--|------17------17------17------17--|
*----------------------------------|----------------------------------|
-----------------------------------|----------------------------------|


   E   E   E   E   E   E   E   E      E   E   E   E   4x
--17------17------16------17------|--17------17-------||
------17------17------17------17--|------17------17--*||
----------------------------------|------------------*||
----------------------------------|-------------------||


    S  S  S  E   S S  S S  E   E   E   S  
------------12--10-9----9----------------|
*--10-10-10----------12---10--10--10--12-|
*----------------------------------------|
-----------------------------------------|


   S  S  S  E   S S  S S  E   E   E   S  
-----------12--10-9----9----------------|
--10-10-10----------12---10--10--10--12-|
----------------------------------------|
----------------------------------------|


   S  S  S  E   S S  S S  E   E   E   S     S  S  E   S S  E     
-----------12--10-9----9----------------|------------10-9-12---||
--10-10-10----------12---10--10--10--12-|--10-10-10-----------*||
----------------------------------------|---------------------*||
----------------------------------------|----------------------||


   S S S S S S S S S S S S S S S S    S S S S S S S S S S S S S S S S  
-----------------------------------|----------------------------------|
*----------------------------------|----------------------------------|
*--3-3-3-3-3-3-3-3-3-3-3-3-3-------|----------------------------------|
-----------------------------0-1-0-|--5-5-5-5-5-5-5-5-5-5-5-5-5-0-1-0-|


  S S S S S S S S S S S S S S S S    S S S S S S S S  5x
----------------------------------|-------------------||
----------------------------------|------------------*||
--3-3-3-3-3-3-3-3-3-3-3-3-3-------|------------------*||
----------------------------0-1-0-|--5-5-5-5-5-5-5-5--||


    S  S  S  S  S  S  S  S  S  S  S  S  S  S  S  S  
---------------------------------------------------|
*--------------------------------------------------|
*--12-12-12-12-12-12-12-12-12-12-12-12-10-10-10-10-|
---------------------------------------------------|


   S  S  S  S  S  S  S  S  S  S  S  S  S  S  S  S  
--------------------------------------------------|
--------------------------------------------------|
--------------------------------------------------|
--12-12-12-12-12-12-12-12-13-13-13-13-13-13-13-13-|


   S  S  S  S  S  S  S  S  S  S  S  S  S  S  S  S  
--------------------------------------------------|
--------------------------------------------------|
--12-12-12-12-12-12-12-12-12-12-12-12-10-10-10-10-|
--------------------------------------------------|


   S  S  S  S  S  S  S  S    
---------------------------||
--10-10-10-10-10-10-10-10-*||
--------------------------*||
---------------------------||


    S  S  S  S  S  S  S  S  S  S  S  S S S S S  
-----------------------------------------------|
*--------------------------------------9-9-9-9-|
*--12-12-12-12-12-12-12-12-12-12-12-12---------|
-----------------------------------------------|


   S  S  S  S  S  S  S  S  S  S  S  S  S  S  S  S  
--------------------------------------------------|
--10-10-10-10-10-10-10-10-12-12-12-12-12-12-12-12-|
--------------------------------------------------|
--------------------------------------------------|


   S  S  S  S  S  S  S  S  S  S  S  S  S  S  S  S  
--------------------------------------------------|
--------------------------------------------------|
--12-12-12-12-12-12-12-12-12-12-12-12-10-10-10-10-|
--------------------------------------------------|


   S  S  S  S  S  S  S  S      S H.           S S S  
---------------------------||-----------------------|
--10-10-10-10-10-10-10-10-*||-----------------3-2-0-|
--------------------------*||--3--------------------|
---------------------------||-----------------------|


  S H.           S S S    S H.           S S S    S H.           S S S  
-----------------------|-----------------------|-----------------------|
-----------------3-2-0-|-----------------3-2-0-|-----------------3-2-0-|
--3--------------------|--3--------------------|--3--------------------|
-----------------------|-----------------------|-----------------------|


  S S S E  H        S S S    S S S E  H        S S S  
--------------------------|--------------------------|
--------------------3-2-0-|--------------------3-2-0-|
--3---3-------------------|--3---3-------------------|
--------------------------|--------------------------|


  S S S E.  S Q.     S S S    S S S E.  S E.  S E  S S S  
---------------------------|-----------------------------|
---------------------3-2-0-|-----------------------3-2-0-|
--3---3-----3--------------|--3---3-----3-----3----------|
---------------------------|-----------------------------|


    S S S S S S S S S S S S S S S S    S S S S S S S S S S S S S S S S  
|-----------------------------------|----------------------------------|
|*----------------------------3-2---|----------------------------3-2---|
|*--3-3-3-3-3-3-3-3-3-3-3-3-3-----3-|--2-2-2-2-2-2-2-2-2-2-2-2-2-----2-|
|-----------------------------------|----------------------------------|


  S S S S S S S S  S  S  S  S  S  S  S  S  
------------------------------------------|
------------------------------------------|
--0-0-0-0-0-0-0-0-14-14-14-14-14-14-14-14-|
------------------------------------------|


   S  S  S  S  S  S  S  S  S  S  S  S  S  S  S  S    
---------------------------------------------------||
--------------------------------------------------*||
--15-15-15-15-15-15-15-15-17-17-17-17-17-17-17-17-*||
---------------------------------------------------||


   S  S  S  S  S  S  S  S S S S S S S S S  
------------------------------------------|
------------------------------------------|
--10-10-10-10-10-10-10-10-8-8-8-8-8-8-8-8-|
------------------------------------------|


  S S S S S S S S S S S S S S S S    S S S S S S S S S S S S S S S S  
----9---9---9---9---9---9---9---9-|----9---9---9---9---9---9---9---9-|
----------------------------------|----------------------------------|
----------------------------------|--7---7---7---7---8---8---8---7---|
--8---8---8---8---8---8---7---7---|----------------------------------|


  S S S S S S S S S S S S S S S S    S S S S S S S S S S S S S S S S  
----9---9---9---9---9---9---9---9-|----9---9---9---9---9---9---9---9-|
----------------------------------|----------------------------------|
----------------------------------|--0---0---0---0---0---0---0---0---|
--8---8---8---8---8---8---7---7---|----------------------------------|


  E  E  H.             
-----9--L------------||
---------------------||
--0--L--L------------||
---------------------||




Duration Legend
---------------
W - whole
H - half
Q - quarter
E - 8th
S - 16th
T - 32nd
X - 64th
. - note dotted
|-n-|  - n-tuplets


Tablature Legend
----------------
L - tied note
x - dead note
g - grace note
(n) - ghost note
> - accentuded note
NH - natural harmonic
AH - artificial harmonic
TH - tapped harmonic
SH - semi harmonic
PH - pitch harmonic
h - hammer on
p - pull off
b - bend
br - bendRelease
pb - preBend
pbr - preBendRelease
brb - bendReleaseBend
\n/ - tremolo bar dip
\n - tremolo bar dive
-/n - tremolo bar Release up
/n\ - tremolo bar inverted dip
/n - tremolo bar return
-\n - tremolo bar Release down
S - shift slide
s - legato slide
/ -  slide into from below or out of upwards
\ -  slide into from above or out of downwards
~ - vibrato
W - wide vibrato
tr - trill
TP - tremolo picking
T - tapping
S - slap
P - pop
< - fade in
^ - brush up
v - brush down
comments
We did not receive enough feedback on this tab! Please rate:
print report bad tab
1 2 3 4 5
I want to post or [tab]
guest
You may want to rate the tab now too:
select rating
Please do not post tabs as comments. Select "correction" instead!