Oops, an error
Loading. Please wait.

Trojan Horse Bass Tab

version 1
version 1

Whole song

Interactive

2,444 views 1 this week
no commentswrite comment
1 2 3 4 5
3 more votes to show rating
add to favorites
launch autoscroll
font size
0
reset
guitar tuner
Autoscroll
slow
fast
+/-
esc
set tempo
stop
Help us to improve Ultimate-Guitar.com Take our survey!
×
Author
Difficulty
novice
Bass doesn't come in until "Now there's nothing here"
G|------------------------------------------------------|
D|------------------------------------------------------|
A|/8-8-8\-----------------------------------------------|
E|------------------------------------------------------|
Play until next part.

Chorus 1
G|----------|
D|----------|
A|8-8-------|
E|----1/4-4-|Is played at the start of every other line that Kele sings.

Verse 2
G|---------------------------------------------------------5555--3333--|
D|-------------------------------------------------------------66----55|
A|1/8------------------------1/8---------------------------------------|
E|---14-------------------------14-------------------------------------|X2

Chorus 2
G|--------------------------------|
D|--------------------3333--------|
A|--------44446666--------44446666|
E|11114444--------1111------------|

The bit played under Russell's awesome solo
G|---------------------------------|
D|---------------------------------|
A|----------------2h333333333334444|
E|1111111111111111-----------------|x2

G|--------------------------------|-------|
D|--------------------------------|-------|
A|------------------------2333-6-8|-------|
E|111111113333333344444444--------|X2--1-1|On 2nd time

Suggest correction
Give kudos to tab author, rate the tab!
1 2 3 4 5
comments
print report bad tab
guest
You may want to rate the tab now too:
select rating
Wanna post a correction for this tab? Suggest correction