Oops, an error
Loading. Please wait.

Tulips Bass Tab

version 2
version 2

Whole song

Interactive

1,563 views 1 this week
1 commentread comment
1 2 3 4 5
please rate
add to favorites
launch autoscroll
font size
0
reset
guitar tuner
Autoscroll
slow
fast
+/-
esc
set tempo
stop
Help us to improve Ultimate-Guitar.com Take our survey!
×
Author
Bloc Party
Tulips
Little Thoughts EP

I've been looking for a tab for this song for ages, but have only found reference to
the Minotaur Shock Remix. So I thought I'd do it myself, this is the original version
which is far better. I really need some help on the outro, and most of it general needs
sorting out, but this is a base for it - any improvements would be great! This is a
beautiful song by Bloc Party, and I hope the tab does it justice - enjoy!

Intro 
G|-----------------------------------------------|
D|-----------------------------------------------|
A|-----------77777777----------1010101010101010--|
E|--77777777----------77777777-------------------|

G|----------------------------------------|
D|----------------------------------------|
A|-----------77777777---------------------|
E|--77777777----------77777777—-00000000--|


Verse
G|--------------------|-----------------------|
D|--------------------|-----------------------|
A|--------------------|-----------------------|
E|------5---7-7-7-----|-----5---7-7----0------|

G|--------------------|-----------------------|
D|--------------------|--------------------7--|
A|--------------------|----------------5-7----|
E|-----5---7-7-7------|-5---7-7-7-------------|


Chorus
G|---------------------|-------------------------|
D|-7h9-9--9—--7-9—9999-|-7h9p7—-7-7-----7-7-7--7-|
A|---------------------|------------7h9----------|
E|---------------------|-------------------------|

G|---------------------|-------------------------|
D|-----5-5-5-----55555-|-5555555-----------------|
A|-7h9-------5h7-------|----------555------------|
E|---------------------|---------------555--000--|


Verse x2
G|--------------------|-----------------------|
D|--------------------|-----------------------|
A|--------------------|-----------------------|
E|------5---7-7-7-----|-----5---7-7----0------|

G|--------------------|-----------------------|
D|--------------------|--------------------7--|
A|--------------------|----------------5-7----|
E|-----5---7-7-7------|-5---7-7-7-------------|


Chorus x2
G|---------------------|-------------------------|
D|-7h9-9--9—--7-9—9999-|-7h9p7—-7-7-----7-7-7--7-|
A|---------------------|------------7h9----------|
E|---------------------|-------------------------|

G|---------------------|-------------------------|
D|-----5-5-5-----55555-|-------------------------|
A|-7h9-------5h7-------|--55555555---------------|
E|---------------------|------------555555-00000-|


Outro
G|--14-12----------------------|
D|--------14-12------------12--|     I think is actually guitars, but 
A|--------------14-12-14-12----|     whatever  
E|-----------------------------|





G|--14-14-14-12-12-12---------------------|
D|---------------------14-14-14-12-12-12--|    this kicks in as Kele sings
A|----------------------------------------|    'COS YOU'RE THE ONE I LOVE!'
E|----------------------------------------|

G|-----------------------------------------------------|
D|----------------------------12-12-12----14-14-12-12--|
A|-14-12---14-14-14-12-12-12---------------------------|
E|-----------------------------------------------------|

G|--14-14-14-12-12-12---------------------|
D|---------------------14-14-14-12-12-12--|
A|----------------------------------------|
E|----------------------------------------|

G|-----------------------------------------------|
D|-----------------------------------------------|
A|-14-12----14-14-14-12-12-12--5-5-5-5-5-5-5-5-5-|
E|-----------------------------------------------|

G|--------------------------------------------------------|
D|--7-7-7-5-5-5-------------------------------------------| Play untill   
A|--------------7-7-7-5-5-5-------------------5-5-5-5-7p5-| end
E|--------------------------7-5---7-7-7-5-5-5-------------|


Please Rate! Any improvements will be appreciated.

Phil Guy
10988@oakham.rutland.sch.uk








Suggest correction
What's this?
You can suggest a correction to this tab. Community and Mods will review your correction and vote to approve or reject it.
comments
We did not receive enough feedback on this tab! Please rate:
print report bad tab
1 2 3 4 5
1 comment total.
0 reply
RamMastaZ 49 wrote on February 21 2009, 12:39 am

in the intro it should the 0 on the E-string should be a 3 (octave of the 10 on the A-string), and in the verse it should be

G|--------------------|-----------------------|
D|--------------------|--------------------9-7|
A|--------------------|----------------5h7----|
E|-----5---7-7-7------|-5---7-7-7-------------|

guest
You may want to rate the tab now too:
select rating
Please do not post tabs as comments. Select "correction" instead!