Oops, an error
Loading. Please wait.

Two More Years tab

version 1
version 1

Whole song

Interactive

14,144 views 24 this week
3 commentsread comments
1 2 3 4 5
x 9
add to favorites
×
Save as Personal and add changes to this tab that will be seen only by you. Learn more ›
×
You can save this tab as Personal to edit and correct it or add notes. All changes will be seen only by you. Learn more »
launch autoscroll
font size
0
reset
how to read this tab
guitar tuner
edit
Autoscroll
slow
fast
+/-
esc
set tempo
stop
Author
Difficulty
I have reliased there are a few versions of this song available.
This tab is the version with the solo played at the end.


-=>Guitar 1<=-

[Intro]
E|---------------------------------|
B|---------------------------------|
G|--------Rest-While-Guitar--------|
D|------------Two-Plays------------|
A|---------------------------------|
E|---------------------------------|

[Verse]
E|-1~~--|-1~~--|-1~~--|-1~|---|-1~~--|-1~~--|-1~~--|-1~|---|
B|-1~~--|-3~~--|-1~~--|-3~|---|-1~~--|-3~~--|-1~~--|-3~|-1-|
G|-2~~--|-2~~--|-2~~--|-2~|-0-|-2~~--|-2~~--|-2~~--|-2~|-0-|
D|-3~~--|-0~~--|-3~~--|-0~|-2-|-3~~--|-0~~--|-3~~--|-0~|-2-|
A|------|------|------|---|-3-|------|------|------|---|-3-|
E|------|------|------|---|---|------|------|------|---|---|

[Pre-Chorus]
E|------|------|-1~~--|------|----|----|----|----|
B|------|------|-3~~--|-1~~--|----|----|----|----|
G|-3~~--|------|-2~~--|-0~~--|-3~-|-3~-|-3~-|-3~-|
D|-3~~--|-5~~--|-0~~--|-2~~--|-3~-|-3~-|-3~-|-3~-|
A|-1~~--|-5~~--|------|-3~~--|-1~-|-1~-|-1~-|-1~-|
E|------|-3~~--|------|------|----|----|----|----|

[Chorus] (times 2)
E|------------------------------------------------------------------|
B|------------------------------------------------------------------|
G|-7~------9~-----10~------12~------7~------9~----------------------|
D|-7~------9~-----10~------12~------7~------9~------8~------5~------|
A|-5~------7~------8~------10~------5~------7~------8~------5~------|
E|--------------------------------------------------6~------3~------|

[Bridge]
E|---------------------------------|
B|---------------------------------|
G|--------Rest-While-Guitar--------|
D|------------Two-Plays------------|
A|---------------------------------|
E|---------------------------------|

[Verse]
E|-1~~--|-1~~--|-1~~--|-1~|---|-1~~--|-1~~--|-1~~--|-1~|---|
B|-1~~--|-3~~--|-1~~--|-3~|---|-1~~--|-3~~--|-1~~--|-3~|-1-|
G|-2~~--|-2~~--|-2~~--|-2~|-0-|-2~~--|-2~~--|-2~~--|-2~|-0-|
D|-3~~--|-0~~--|-3~~--|-0~|-2-|-3~~--|-0~~--|-3~~--|-0~|-2-|
A|------|------|------|---|-3-|------|------|------|---|-3-|
E|------|------|------|---|---|------|------|------|---|---|

[Pre-Chorus]
E|------|------|-1~~--|------|----|----|----|----|
B|------|------|-3~~--|-1~~--|----|----|----|----|
G|-3~~--|------|-2~~--|-0~~--|-3~-|-3~-|-3~-|-3~-|
D|-3~~--|-5~~--|-0~~--|-2~~--|-3~-|-3~-|-3~-|-3~-|
A|-1~~--|-5~~--|------|-3~~--|-1~-|-1~-|-1~-|-1~-|
E|------|-3~~--|------|------|----|----|----|----|

[Chorus] (Times 4)
E|------------------------------------------------------------------|
B|------------------------------------------------------------------|
G|-7~------9~-----10~------12~------7~------9~----------------------|
D|-7~------9~-----10~------12~------7~------9~------8~------5~------|
A|-5~------7~------8~------10~------5~------7~------8~------5~------|
E|--------------------------------------------------6~------3~------|

[Breakdown]
E|----|----|----|----|----|----|----|----|
B|----|----|----|----|----|----|----|----|
G|-3~-|-3~-|-3~-|-3~-|-3~-|-3~-|-3~-|-3~-|
D|-3~-|-3~-|-3~-|-3~-|-3~-|-3~-|-3~-|-3~-|
A|-1~-|-1~-|-1~-|-1~-|-1~-|-1~-|-1~-|-1~-|
E|----|----|----|----|----|----|----|----|

[Outro/Solo] (times 2)
E|------------------------------------------------------------------|
B|------------------------------------------------------------------|
G|-7~------9~-----10~------12~------7~------9~----------------------|
D|-7~------9~-----10~------12~------7~------9~------8~------5~------|
A|-5~------7~------8~------10~------5~------7~------8~------5~------|
E|--------------------------------------------------6~------3~------|

(Gradually Fading)
E|--------------------------------------------------|
B|--11-11-11-11-11-11-11-11-11-11-11-11-11-11-11-11-|
G|--10-10-10-10-10-10-10-10-10-10-10-10-10-10-10-10-|
D|--------------------------------------------------|
A|--------------------------------------------------|
E|--------------------------------------------------|


-=>Guitar 2<=-

Effects- I use a Boss PH3 phase shifter.
have the phaser set like this:

Rate: halfway round, pointing up
Depth: halfway round, pointing up
RES: halfway round, pointing up
Stage: 10


[Intro]
(Phaser Used-Palm Muted)
E|---------------------------------|
B|---------------------------------|
G|---------------------------------|
D|-8-8-8-8-8-8-8-8-8-8-8-8-8-8-8-8-|
A|-5-5-5-5-5-5-5-5-5-5-5-5-5-5-5-5-|
E|---------------------------------|

[Verse]
(Phaser Used-Palm Muted)
E|---------------------------------|
B|---------------------------------|
G|---------------------------------|
D|-8-8-8-8-8-8-8-8-8-8-8-8-8-8-8-8-|
A|-5-5-5-5-5-5-5-5-5-5-5-5-5-5-5-5-|
E|---------------------------------|

[Pre-Chorus]
(Phaser Used-Palm Muted)
E|---------------------------------|
B|---------------------------------|
G|---------------------------------|
D|-8-8-8-8-8-8-8-8-8-8-8-8-8-8-8-8-|
A|-5-5-5-5-5-5-5-5-5-5-5-5-5-5-5-5-|
E|---------------------------------|

[Chorus]
(Phaser Used-Palm Muted) (times 2)
E|--------------------------------------------------------------------|
B|--------------------------------------------------------------------|
G|--------------------------------------------------------------------|
D|-7-7-7-7-7-7-7-7-1010101010101010-1010101010101010-1212121212121212-|
A|-5-5-5-5-5-5-5-5--7-7-7-7-7-7-7-7--8-8-8-8-8-8-8-8-1010101010101010-|
E|--------------------------------------------------------------------|
 |
E|------------------------------------------------------------------|
B|------------------------------------------------------------------|
G|------------------------------------------------------------------|
D|-7-7-7-7-7-7-7-7-1010101010101010---------------------------------|
A|-5-5-5-5-5-5-5-5--7-7-7-7-7-7-7-7-8-8-8-8-8-8-8-8-5-5-5-5-5-5-5-5-|
E|----------------------------------6-6-6-6-6-6-6-6-3-3-3-3-3-3-3-3-|

[Bridge]
(Phaser Used-Palm Muted)
E|---------------------------------|
B|---------------------------------|
G|-7-7-7-7-7-7-7-7-7-7-7-7-7-7-7-7-|
D|-5-5-5-5-5-5-5-5-5-5-5-5-5-5-5-5-|
A|---------------------------------|
E|---------------------------------|

[Verse]
(Phaser Used-Palm Muted)
E|---------------------------------|
B|---------------------------------|
G|---------------------------------|
D|-8-8-8-8-8-8-8-8-8-8-8-8-8-8-8-8-|
A|-5-5-5-5-5-5-5-5-5-5-5-5-5-5-5-5-|
E|---------------------------------|

[Pre-Chorus]
(Phaser Used-Palm Muted)
E|---------------------------------|
B|---------------------------------|
G|---------------------------------|
D|-8-8-8-8-8-8-8-8-8-8-8-8-8-8-8-8-|
A|-5-5-5-5-5-5-5-5-5-5-5-5-5-5-5-5-|
E|---------------------------------|

[Chorus]
(Phaser Used-Palm Muted) (times 4)
E|--------------------------------------------------------------------|
B|--------------------------------------------------------------------|
G|--------------------------------------------------------------------|
D|-7-7-7-7-7-7-7-7-1010101010101010-1010101010101010-1212121212121212-|
A|-5-5-5-5-5-5-5-5--7-7-7-7-7-7-7-7--8-8-8-8-8-8-8-8-1010101010101010-|
E|--------------------------------------------------------------------|
 |
E|------------------------------------------------------------------|
B|------------------------------------------------------------------|
G|------------------------------------------------------------------|
D|-7-7-7-7-7-7-7-7-1010101010101010---------------------------------|
A|-5-5-5-5-5-5-5-5--7-7-7-7-7-7-7-7-8-8-8-8-8-8-8-8-5-5-5-5-5-5-5-5-|
E|----------------------------------6-6-6-6-6-6-6-6-3-3-3-3-3-3-3-3-|

[Breakdown]
E|---------------------------------|
B|---------------------------------|
G|--------Rest-While-Guitar--------|
D|------------One-Plays------------|
A|---------------------------------|
E|---------------------------------|

Use this opportunity to adjust the phaser for the outro
set the phaser like this:

Rate: quarterway round, pointing left
Depth: quarterway round, pointing left
RES: halfway round, pointing up
Stage: 8

[Outro/Solo]
(Phaser with the above setting, soft Overdrive, and Chorus)
E|----------------------------------------9-9--|
B|-12-12-12-12-12-12-12-12-10-10-10-9--9-------|
G|---------------------------------------------|
D|---------------------------------------------|
A|---------------------------------------------|
E|---------------------------------------------|
 |
E|----------------------------------------|
B|-----------------12-12-10-10-9-9--------|
G|-9-9-9-9-9-9-9-9-----------------11-11--|
D|----------------------------------------|
A|----------------------------------------|
E|----------------------------------------|
 |
E|----------------------------------------|
B|-------12--12--12--10--10--10--9--9--9--|
G|-9-9-9----------------------------------|
D|----------------------------------------|
A|----------------------------------------|
E|----------------------------------------|
 |
E|----------------------------------------|
B|-----------------12-12-10-10-9-9--------|
G|-9-9-9-9-9-9-9-9-----------------11-11--|
D|----------------------------------------|
A|----------------------------------------|
E|----------------------------------------|
 |
E|----------------------------------------|
B|-------12--12--12--10--10--10--9--9--9--|
G|-9-9-9----------------------------------|
D|----------------------------------------|
A|----------------------------------------|
E|----------------------------------------|
 |
E|----------------------------------------|
B|-------12--12-12-10--10-10-9-9-9-12-12--|
G|-9-9-9----------------------------------|
D|----------------------------------------|
A|----------------------------------------|
E|----------------------------------------|
 |
E|-----------------------------------|---------------------------------|
B|-------10--9------------10--9------|---------------------------------|
G|-9-9-9--------11--9-9-9--------11--|-9-9-9-9-9-9-9-9-9-9-9-9-9-9-9-9-|
D|-----------------------------------|---------------------------------|
A|-----------------------------------|---------------------------------|
E|-----------------------------------|---------------------------------|
 |
E|----------------------------------|-------------12--12-------------9-|
B|-------10--9------------10--9-----|-10-10-10-10---------12-12-10-9---|
G|-9-9-9--------11--9-9-9--------11-|----------------------------------|
D|----------------------------------|----------------------------------|
A|----------------------------------|----------------------------------|
E|----------------------------------|----------------------------------|
 |
E|----------------------------------------|
B|-----------------12-12-10-10-9-9--------|
G|-9-9-9-9-9-9-9-9-----------------11-11--|
D|----------------------------------------|
A|----------------------------------------|
E|----------------------------------------|
 |
E|-------------------------------|---------------------|
B|-12--12--10--10--9--9----------|-------12-------10---|
G|-----------------------11--11--|---10--------9-------|
D|-------------------------------|---------------------|
A|-------------------------------|---------------------|
E|-------------------------------|---------------------|
 
 (Repeat this until Fade)
E|--------------------------------|
B|-------12-12-12--12--10--9------|
G|-9--9-----------------------11--|
D|--------------------------------|
A|--------------------------------|
E|--------------------------------|
 |
E|----------------------------9--|
B|-------12-12-12--12--10--9-----|
G|-9--9--------------------------|
D|-------------------------------|
A|-------------------------------|
E|-------------------------------|

            
            
Suggest correction
Creating personal tab
Creating personal tab
You can edit any tab online and save it as your Personal.

You can edit, replace or remove any tab part or add personal notes – all changes will be seen only by you.

Personal tabs can be accessed anytime from any device, even offline.
Learn more »
comments
print report bad tab
3 comments total.
0 reply
the_mute 41 Jan 05, 2006 08:46 AM

Perfect.

0 reply
gregorisgod 51 May 08, 2006 09:45 AM

As the_mute said - perfect.

Nice touch, adding the settings for the phaser and the effects used.

Good tab.

0 reply
tom_shirley 21 Jan 26, 2007 12:50 PM

good job on the solo

guest
You may want to rate the tab now too:
select rating
Wanna post a correction for this tab? Suggest correction