Oops, an error
Loading. Please wait.

Two More Years Bass Tab

version 2
version 2

Whole song

Interactive

591 views 1 this week
no commentswrite comment
1 2 3 4 5
please rate
add to favorites
launch autoscroll
font size
0
reset
guitar tuner
Autoscroll
slow
fast
+/-
esc
set tempo
stop
Help us to improve Ultimate-Guitar.com Take our survey!
×
Author
Difficulty
Tuning
novice
D A D G B E
G|----------------|----------------|
D|----------------|----------------|
A|----------------|-5-5~-----3-3~--|
D|--8-8~-------5~-|----------------|

G|-------------------|-------------------|-------------------|-------------------|
D|-------------------|-------------------|-------------------|-------------------|
A|-------------------|-------------------|-------------------|-------------------|
D|-8-8-8-5-5-5-5-5-5-|-8-8-8-5-5-5-5-5-5-|-8-8-8-5-5-5-5-5-5-|-8-8-8-5-5-5-5-5-5-|

G|-----------------|-----------------|-----------------|--------------------------||
D|-----------------|-----------------|-----------------|--------------------------||
A|-5-5-5-5-5-5-5-5-|-7-7-7-7-7-7-7-7-|-8-8-8-8-8-8-8-8-|-10-10-10-10-10-10-10-10--||
D|-----------------|-----------------|-----------------|--------------------------||
										     |x2
G|-----------------|-----------------|-----------------|------------------------||
D|-----------------|-----------------|-----------------|------------------------||
A|-5-5-5-5-5-5-5-5-|-7-7-7-7-7-7-7-7-|-----------------|------------------------||
D|-----------------|-----------------|-8-8-8-8-8-8-8-8-|-5-5-5-5-5-5-5-5--------||

G|--------------|--------------------|------------------|--------------------|--------------|
D|--------------|--------------------|------------------|--------------------|--------------|
A|-----5--------|----3---5-----------|-3-3-3-3-5--------|----3---5-----------|-----5---3----|
D|-------3-3-3--|--3---3---0-0-0-0-0-|-----------3-3-3--|--3---3---0-0-0-0-0-|-------8---5--|x2

G|----------------|----------------|
D|----------------|----------------|
A|----------------|-5-5~-----3-3~--|
D|--8-8~-------5~-|----------------|

G|-------------------|-------------------|-------------------|-------------------|
D|-------------------|-------------------|-------------------|-------------------|
A|-------------------|-------------------|-------------------|-------------------|
D|-8-8-8-5-5-5-5-5-5-|-8-8-8-5-5-5-5-5-5-|-8-8-8-5-5-5-5-5-5-|-8-8-8-5-5-5-5-5-5-|

G|-----------------|-----------------|-----------------|--------------------------||
D|-----------------|-----------------|-----------------|--------------------------||
A|-5-5-5-5-5-5-5-5-|-7-7-7-7-7-7-7-7-|-8-8-8-8-8-8-8-8-|-10-10-10-10-10-10-10-10--||
D|-----------------|-----------------|-----------------|--------------------------||
										    |x2
G|-----------------|-----------------|-----------------|------------------------||
D|-----------------|-----------------|-----------------|------------------------||
A|-5-5-5-5-5-5-5-5-|-7-7-7-7-7-7-7-7-|-----------------|------------------------||
D|-----------------|-----------------|-8-8-8-8-8-8-8-8-|-5-5-5-5-5-5-5-5--------||

G|-----------------|-----------------|------------------|-------------------------------|\
D|-----------------|-----------------|------------------|-------------------------------||
A|-5-5-5-5-5-5-----|-5-7-7-7-7-7-----|-7-8-8-8-8-8------|-8-10-10-10-10-10-10-13-12-10--||
D|-------------5-7-|-------------7-9-|-------------8-10-|-------------------------------||
										          |x2
G|-----------------|-----------------|-----------------|------------------------|
D|-----------------|-----------------|-----------------|------------------------|
A|-5-5-5-5-5-5-5-5-|-7-7-7-7-7-7-7-7-|-----------------|------------------------|
D|-----------------|-----------------|-8-8-8-8-8-8-8-8-|-5-5-5-5-5-5-5-5--------|

secondtimeendwith:

G|-----------------|-----------------|-------|--------|------|
D|-----------------|-----------------|-8--7--|--------|------|
A|-5-5-5-5-5-5-5-5-|-7-7-7-7-8-8-8-8-|-------|-8-8--7-|------|
D|-----------------|-----------------|-------|--------|-10---|

G|-------|--------|------|
D|-8--7--|--------|------|
A|-------|-8-8--7-|------|
D|-------|--------|-10---|x8

G|-----------------|-----------------|-----------------|--------------------------|
D|-----------------|-----------------|-----------------|--------------------------|
A|-5-5-5-5-5-5-5-5-|-7-7-7-7-7-7-7-7-|-8-8-8-8-8-8-8-8-|-10-10-10-10-10-10-10-10--|
D|-----------------|-----------------|-----------------|--------------------------|

G|-----------------|-----------------|-----------------|------------------------|
D|-----------------|-----------------|-----------------|------------------------|
A|-5-5-5-5-5-5-5-5-|-7-7-7-7-7-7-7-7-|-----------------|------------------------|
D|-----------------|-----------------|-8-8-8-8-8-8-8-8-|-5-5-5-5-5-5-5-5--------|

G|-----------------|-----------------|-----------------|-----------------|
D|-----------------|-----------------|-----------------|-----------------|
A|-----------------|-----------------|-----------------|-----------------|
D|-0-0-0-0-0-0-0-0-|-2-2-2-2-2-2-2-2-|-3-3-3-3-3-3-3-3-|-5-5-5-5-5-5-5-5-|

G|-----------------|-----------------|-------|--------|------|
D|-----------------|-----------------|-8--7--|--------|------|
A|-----------------|-----------------|-------|-8-8--7-|------|
D|-0-0-0-0-0-0-0-0-|-2-2-2-2-3-3-3-3-|-------|--------|-10---|

G|-------|--------|------|
D|-8--7--|--------|------|
A|-------|-8-8--7-|------|
D|-------|--------|-10---|x8
Suggest correction
Give kudos to tab author, rate the tab!
1 2 3 4 5
comments
print report bad tab
guest
You may want to rate the tab now too:
select rating
Please do not post tabs as comments. Select "correction" instead!