Oops, an error
Loading. Please wait.

Two More Years tab

version 2
version 2

Whole song

Interactive

2,855 views 1 this week
2 commentsread comments
1 2 3 4 5
x 7
add to favorites
×
Save as Personal and add changes to this tab that will be seen only by you. Learn more ›
×
You can save this tab as Personal to edit and correct it or add notes. All changes will be seen only by you. Learn more »
launch autoscroll
font size
0
reset
how to read this tab
guitar tuner
edit
Autoscroll
slow
fast
+/-
esc
set tempo
stop
Author
Difficulty
Artist: Bloc Party
Song: Two More Years
Tuning: Standard – E A D G B E
Tabbed by James Morris
Date: 17/11/05

This tab doesn’t have all of guitar 2’s parts, but all of guitar 1’s.

Intro-Flanger or Phaser Used-Palm Muted
E|---------------------------------|
B|---------------------------------|
G|---------------------------------|
D|-8-8-8-8-8-8-8-8-8-8-8-8-8-8-8-8-|
A|-5-5-5-5-5-5-5-5-5-5-5-5-5-5-5-5-|
E|---------------------------------|

Verse
Guitar 1
   F     Dm      F     Dm   C   F     Dm      F     Dm   C
E|-1~~--|-1~~--|-1~~--|-1~|---|-1~~--|-1~~--|-1~~--|-1~|---|
B|-1~~--|-3~~--|-1~~--|-3~|---|-1~~--|-3~~--|-1~~--|-3~|-1-|
G|-2~~--|-2~~--|-2~~--|-2~|-0-|-2~~--|-2~~--|-2~~--|-2~|-0-|
D|-3~~--|-0~~--|-3~~--|-0~|-2-|-3~~--|-0~~--|-3~~--|-0~|-2-|
A|------|------|------|---|-3-|------|------|------|---|-3-|
E|------|------|------|---|---|------|------|------|---|---|

Guitar 2
Flanger or Phaser Used-Palm Muted
E|---------------------------------|
B|---------------------------------|
G|---------------------------------|
D|-8-8-8-8-8-8-8-8-8-8-8-8-8-8-8-8-|
A|-5-5-5-5-5-5-5-5-5-5-5-5-5-5-5-5-|
E|---------------------------------|

Pre-Chorus
Guitar 1
  Bb      G     Dm      C     Bb  Bb  Bb  Bb
E|------|------|-1~~--|------|---|---|---|---|
B|------|------|-3~~--|-1~~--|---|---|---|---|
G|-3~~--|-4~~--|-2~~--|-0~~--|-3-|-3-|-3-|-3-|
D|-3~~--|-5~~--|-0~~--|-2~~--|-3-|-3-|-3-|-3-|
A|-1~~--|-5~~--|------|-3~~--|-1-|-1-|-1-|-1-|
E|------|-3~~--|------|------|---|---|---|---|

Guitar-Same as verse

Chorus
Guitar 1
E|--------------------------------------------------------------------|
B|--------------------------------------------------------------------|
G|--------------------------------------------------------------------|
D|-7-7-7-7-7-7-7-7-1010101010101010-1010101010101010-1212121212121212-|
A|-5-5-5-5-5-5-5-5--7-7-7-7-7-7-7-7--8-8-8-8-8-8-8-8-1010101010101010-|
E|--------------------------------------------------------------------|

E|------------------------------------------------------------------|
B|------------------------------------------------------------------|
G|------------------------------------------------------------------|
D|-7-7-7-7-7-7-7-7-1010101010101010---------------------------------|
A|-5-5-5-5-5-5-5-5--7-7-7-7-7-7-7-7-8-8-8-8-8-8-8-8-5-5-5-5-5-5-5-5-|
E|----------------------------------6-6-6-6-6-6-6-6-3-3-3-3-3-3-3-3-|

Guitar 2-Same as guitar 1, just an octave higher, with flanger, PM.

Bridge-Guitar 2, with flanger, palm muted
E|---------------------------------|
B|---------------------------------|
G|-7-7-7-7-7-7-7-7-7-7-7-7-7-7-7-7-|
D|-5-5-5-5-5-5-5-5-5-5-5-5-5-5-5-5-|
A|---------------------------------|
E|---------------------------------|

Verse 2-Same as verse 1
Pre-chorus-Same as earlier pre chorus
Chorus-Same as chorus 1
Extended Chorus-Sames as chorus, just extended

Breakdown/Interlude-Bass plays a riff, guitar 1 plays this:
  Bm  Bm  Bm  Bm  Bm  Bm  Bm  Bm
E|---|---|---|---|---|---|---|---|
B|---|---|---|---|---|---|---|---|
G|-3-|-3-|-3-|-3-|-3-|-3-|-3-|-3-|
D|-3-|-3-|-3-|-3-|-3-|-3-|-3-|-3-|
A|-1-|-1-|-1-|-1-|-1-|-1-|-1-|-1-|
E|---|---|---|---|---|---|---|---|

Outro
Guitar 1
E|--------------------------------------------------------------------|
B|--------------------------------------------------------------------|
G|--------------------------------------------------------------------|
D|-7-7-7-7-7-7-7-7-1010101010101010-1010101010101010-1212121212121212-|
A|-5-5-5-5-5-5-5-5--7-7-7-7-7-7-7-7--8-8-8-8-8-8-8-8-1010101010101010-|
E|--------------------------------------------------------------------|

E|------------------------------------------------------------------|
B|------------------------------------------------------------------|
G|------------------------------------------------------------------|
D|-7-7-7-7-7-7-7-7-1010101010101010---------------------------------|
A|-5-5-5-5-5-5-5-5--7-7-7-7-7-7-7-7-8-8-8-8-8-8-8-8-5-5-5-5-5-5-5-5-|
E|----------------------------------6-6-6-6-6-6-6-6-3-3-3-3-3-3-3-3-|

Guitar 2-Same as guitar 1, just an octave higher, with flanger, PM.

Repeats and gradually fades out.

End. Plaese rate, comment and correct. Thanks. Enjoy.
Suggest correction
Creating personal tab
Creating personal tab
You can edit any tab online and save it as your Personal.

You can edit, replace or remove any tab part or add personal notes – all changes will be seen only by you.

Personal tabs can be accessed anytime from any device, even offline.
Learn more »
comments
print report bad tab
2 comments total.
0 reply
schecter006 1,198 Sep 24, 2006 12:04 AM

This tab is pretty basic to play, why is it intermediate?

0 reply
schecter006 1,198 Nov 30, 2013 12:31 AM

Looks like a copy/paste of the other tab.

guest
You may want to rate the tab now too:
select rating
Wanna post a correction for this tab? Suggest correction