Oops, an error
Loading. Please wait.

Version 20 Bass Tab

version 2
version 2

Whole song

Interactive

60 views 1 this week
no commentswrite comment
1 2 3 4 5
please rate
add to favorites
launch autoscroll
font size
0
reset
guitar tuner
Tab Pro tools
  • play this tab
  • loop segment
  • change instrument
  • show fretboard
  • metronome
×
Best way to learn
"Version 20"
Autoscroll
slow
fast
+/-
esc
set tempo
stop
Contributor
Difficulty
intermediate
(0:24)
G|----------------|----------------|----------------|----------------|
D|----------------|----------------|----------------|----------------|
A|----------------|----------------|----------------|----------------|
E|0-0-------------|----------------|----------------|----------------|x3

G|----------------|----------------|----------------|----------------|
D|----------------|----------------|----------------|----------------|
A|----7-7-7---7---|7---7-7-7-5-----|----------------|------------5-5-|
E|0-0-------------|------------7-7-|3h5-5-5-5-5-5-3-|7-7-7-7-8-8-----|x1



(0:48)
G|----------------|-----------------|----------------|-----------------|
D|----------------|-----------------|----------------|-----------------|
A|7-7-7-7-7-7-7-7-|7-7-7-7-7-7-9-10-|----------------|-----------------|
E|----------------|-----------------|8-8-8-8-8-8-8-8-|8-8-8-8-8-10-7-8-|

G|----------------|----------------|----------------|----------------|
D|----------------|----------------|----------------|----------------|
A|----------------|----------------|----------------|9-----9-----9---|
E|5-5-5-5-5-5-5-5-|5-5-5\2-2-2/3-3/|8-8-8-8-8-8-8-8-|--8-8---8-8---8-|

G|----------------|-----------------|----------------|-----------------|
D|----------------|-----------------|----------------|-----------------|
A|7-7-7-7-7-7-7-7-|7-7-7-7-7-7-9-10-|----------------|-----------------|
E|----------------|-----------------|8-8-8-8-8-8-8-8-|8-8-8-8-8-10-7-8-|

G|----------------|----------------|----------------|----------------|
D|----------------|----------------|----------------|----------------|
A|----------------|----------------|----------------|----------------|
E|5-5-5-5-5-5-5-5-|5-5-5\2-2-2/3-3/|8-8-8-8-8-8-8-8-|8-8-8-8-8-8-8-8-|



(1:12) x2
G|----------------|----------------|----------------|----------------|
D|----------------|----------------|----------------|----------------|
A|----------------|----------------|----------------|----------------|
E|0-0-------------|----------------|----------------|----------------|



(1:24)
G|----------------|----------------|----------------|----------------|
D|----------------|----------------|----------------|----------------|
A|----------------|----------------|----------------|----------------|
E|0-0-------------|----------------|----------------|----------------|x2

G|----------------|----------------|----------------|----------------|
D|----------------|----------------|----------------|----------------|
A|----7-7-7---7---|7---7-7-7-5-----|----------------|----------------|
E|0-0-------------|------------7-7-|----------------|----------------|x1

G|----------------|----------------|----------------|----------------|
D|----------------|----------------|----------------|----------------|
A|----7-7-7---7---|7---7-7-7-5-----|----------------|------------5-5-|
E|0-0-------------|------------7-7-|3h5-5-5-5-5-5-3-|7-7-7-7-8-8-----|x1



(1:48)
G|----------------|-----------------|----------------|-----------------|
D|----------------|-----------------|----------------|-----------------|
A|7-7-7-7-7-7-7-7-|7-7-7-7-7-7-9-10-|----------------|-----------------|
E|----------------|-----------------|8-8-8-8-8-8-8-8-|8-8-8-8-8-10-7-8-|

G|----------------|----------------|----------------|----------------|
D|----------------|----------------|----------------|----------------|
A|----------------|----------------|----------------|9-----9-----9---|
E|5-5-5-5-5-5-5-5-|5-5-5\2-2-2/3-3/|8-8-8-8-8-8-8-8-|--8-8---8-8---8-|

G|----------------|-----------------|----------------|-----------------|
D|----------------|-----------------|----------------|-----------------|
A|7-7-7-7-7-7-7-7-|7-7-7-7-7-7-9-10-|----------------|-----------------|
E|----------------|-----------------|8-8-8-8-8-8-8-8-|8-8-8-8-8-10-7-8-|

G|----------------|----------------|----------------|----------------|
D|----------------|----------------|----------------|----------------|
A|----------------|----------------|----------------|----------------|
E|5-5-5-5-5-5-5-5-|5-5-5\2-2-2/3-3/|8-8-8-8-8-8-8-8-|8-8-8-8-8-8-8-8-|

G|----------------|----------------|
D|----------------|----------------|
A|----------------|----------------|
E|8-8-8-8-8-8-8-8-|8-8-8-8-8-8-8-8-|



(2:14)
G|----------------|------------------|----------------|----------------|
D|----------------|------------------|----------------|----------5---7-|
A|7-7-------------|----7-9-10-9-7----|----------------|----------------|
E|----------------|---------------10-|8-8-------------|--------3---5---|

G|----------------|------------------|------------------|----------------------|
D|----------------|------------------|----10-9-7----7-9-|------12-10-9----9-10-|
A|7-7-------------|----7-9-10-9-7----|-----------10-----|--------------12------|
E|----------------|---------------10-|8-8---------------|10-10-----------------|

G|9-------9-------|9---9-11-12-11-9----|----------------|----------9---------|
D|----------------|-----------------12-|10------10------|10--10-12---12-10-9-|
A|----7-------7---|--------------------|----------------|--------------------|
E|----------------|--------------------|----8-------8---|--------------------|

G|----------------|------------------|----------------|----------------|
D|7-------7-------|7---7-9-10-9-7----|----------------|----------7---7-|
A|----------------|---------------10-|----------------|--9--9--5---5---|
E|----5-------5---|------------------|7~--------------|7--7--7---------|



(2:40)
G|----------------|-----------------|----------------|-----------------|
D|----------------|-----------------|----------------|-----------------|
A|7-7-7-7-7-7-7-7-|7-7-7-7-7-7-9-10-|----------------|-----------------|
E|----------------|-----------------|8-8-8-8-8-8-8-8-|8-8-8-8-8-10-7-8-|

G|----------------|----------------|----------------|----------------|
D|----------------|----------------|----------------|----------------|
A|----------------|----------------|----------------|9-----9-----9---|
E|5-5-5-5-5-5-5-5-|5-5-5\2-2-2/3-3/|8-8-8-8-8-8-8-8-|--8-8---8-8---8-|

G|----------------|-----------------|----------------|-----------------|
D|----------------|-----------------|----------------|-----------------|
A|7-7-7-7-7-7-7-7-|7-7-7-7-7-7-9-10-|----------------|-----------------|
E|----------------|-----------------|8-8-8-8-8-8-8-8-|8-8-8-8-8-10-7-8-|

G|----------------|----------------|----------------|----------------|
D|----------------|----------------|----------------|----------------|
A|----------------|----------------|----------------|----------------|
E|5-5-5-5-5-5-5-5-|5-5-5\2-2-2/3-3/|8-8-8\2-2-2/3-3/|8-8-8\2-2-2/3-3/|

G|----------------|----------------|----------------|----------------|
D|----------------|----------------|----------------|----------------|
A|----------------|----------------|----------------|----------------|
E|8-8-8\2-2-2/3-3/|8-8-8\2-2-2/3-3/|8-8-8\2-2-2/3-3/|8-8-8\2-2-2/3-3/|

G|----------------|----------------|----------------|
D|----------------|----------------|----------------|
A|----------------|----------------|7~--------------|
E|8-8-8\2-2-2/3-3/|8-8-8\2-2-2/3-3-|0~--------------|
comments
We did not receive enough feedback on this tab! Please rate:
print report bad tab
1 2 3 4 5
I want to post or [tab]
guest
You may want to rate the tab now too:
select rating
Please do not post tabs as comments. Select "correction" instead!