Oops, an error
Loading. Please wait.

Vision Of Heaven Bass Tab

version 1
version 1

Whole song

Interactive

711 views 1 this week
no commentswrite comment
1 2 3 4 5
3 more votes to show rating
add to favorites
launch autoscroll
font size
0
reset
guitar tuner
Autoscroll
slow
fast
+/-
esc
set tempo
stop
Help us to improve Ultimate-Guitar.com Take our survey!
×
Author
Difficulty
novice
No Bass until Chorus

Chorus
G|------------------------------------|
D|------------------------------------|
A|00000000000000000----------555555555|
E|------------------22222222----------|x3
On last time through
G|-------------------------------------|
D|2-2-22-2-4-44-4-4-4------------------|
A|--------------------5-5-555-5-55-5-55|
E|-------------------------------------|

Verse 2
G|-------------------------------------|
D|-------------------------------------|
A|-------------------2-2-22-2-5-55-5-55|
E|2-2-22-2-5-55-5-55-------------------|

Chorus - Same as first only twice as long

Break
G|-------------------------------|
D|444-222--------444-222--------7|
A|-------5555-00---------5555545-|
E|-------------------------------|

Finish off with Chorus
Beautiful Song
Suggest correction
Give kudos to tab author, rate the tab!
1 2 3 4 5
comments
print report bad tab
guest
You may want to rate the tab now too:
select rating
Wanna post a correction for this tab? Suggest correction