Oops, an error
Loading. Please wait.

We Are Not Good People bass

version 1
version 1

Whole song

Interactive

2,100 views 9 this week
no commentswrite comment
1 2 3 4 5
x 4
add to favorites
×
Save as Personal and add changes to this tab that will be seen only by you. Learn more ›
×
You can save this tab as Personal to edit and correct it or add notes. All changes will be seen only by you. Learn more »
launch autoscroll
font size
0
reset
guitar tuner
edit
Autoscroll
slow
fast
+/-
esc
set tempo
stop
-------------------------------------------------------------------------------
                             We're Not Good People - Bloc Party
-------------------------------------------------------------------------------
Tabbed by: BassistBentley

Tuning: Drop C

intro/verse
F|-----------------------|
C|--------------6-5-3-0--|
G|-----------------------|
C|-----------------------|

F|----------------------------(5)(7)---------|---------------------------------|
C|--0-10-12-0-10-12-0-10-12-0-10-12-3-2-0-0--|--0-3-5-0-3-5-0-3-5-0-3-5-6-5-3--|
G|-------------------------------------------|---------------------------------|
C|-------------------------------------------|---------------------------------|

F|----------------------------(5)(7)---------|------------------------------------------|
C|--0-10-12-0-10-12-0-10-12-0-10-12-3-2-0-0--|--0-12-14-0-14-15-0-15-17-0-18\--6-5-3-0--|
G|-------------------------------------------|------------------------------------------|
C|-------------------------------------------|------------------------------------------|

F|----------------------------(5)(7)---------|---------------------------------|
C|--0-10-12-0-10-12-0-10-12-0-10-12-3-2-0-0--|--0-3-5-0-3-5-0-3-5-0-3-5-6-5-3--|
G|-------------------------------------------|---------------------------------|
C|-------------------------------------------|---------------------------------|

F|----------------------------(5)(7)---------|-------------------------------------------|
C|--0-10-12-0-10-12-0-10-12-0-10-12-3-2-0-0--|--0-12-14-0-14-15-0-15-17-0-17-18-0-18-19--|
G|-------------------------------------------|-------------------------------------------|
C|-------------------------------------------|-------------------------------------------|

F|--------------------------|-----------------------------|
C|--0--0--0--0--0--0--0--x0-|--0--0--0--0--0--0--6-5-3-0--|
G|--------------------------|-----------------------------| x4
C|--------------------------|-----------------------------|

pre-chorus
F|--------------------------|--------------------------|
C|--0--0--0--0--0--0--0--0--|--0--0--0--0--0--0--0--0--|
G|--------------------------|--------------------------| 
C|--------------------------|--------------------------|

F|--------------------------|------------------|
C|--0--0--0--0--0--0--0--0--|--0---------------|
G|--------------------------|------------------| 
C|--------------------------|------------------|

chorus
F|-----------------------------------|-----------------------------------|
C|-----------------------------------|-----------------------------------|
G|--3-3-3-1-1-5-5-5------------------|-----------------/6-6-6-6-6-6-6-6--|
C|------------------3-3-3-3-3-3-3-3--|--3-3-3-3-3-3-3-3------------------|

F|-----------------------------------|-----------------------------------|
C|-----------------------------------|-----------------------------------|
G|--3-3-3-1-1-5-5-5------------------|-----------------/6-6-6-6-6-6-6-6--|
C|------------------0-0-0-0-0-0-0-0--|--3-3-3-3-3-3-3-3------------------|

F|-----------------------------------|-----------------------------------|
C|-----------------------------------|-----------------------------------|
G|--3-3-3-1-1-5-5-5------------------|-----------------/6-6-6-6-6-6-6-6--|
C|------------------3-3-3-3-3-3-3-3--|--3-3-3-3-3-3-3-3------------------|

F|-----------------------------------|-----------------------------------|
C|-----------------------------------|-----------------------------------|
G|--3-3-3-1-1-5-5-5------------------|-----------------------------------|
C|------------------0-0-0-0-0-0-0-0--|--3-3-3-3-3-3-3-3-5-5-5-5-6-5-3-0--|

verse
F|----------------------------(5)(7)---------|---------------------------------|
C|--0-10-12-0-10-12-0-10-12-0-10-12-3-2-0-0--|--0-3-5-0-3-5-0-3-5-0-3-5-6-5-3--|
G|-------------------------------------------|---------------------------------|
C|-------------------------------------------|---------------------------------|

F|----------------------------(5)(7)---------|------------------------------------------|
C|--0-10-12-0-10-12-0-10-12-0-10-12-3-2-0-0--|--0-12-14-0-14-15-0-15-17-0-18\--6-5-3-0--|
G|-------------------------------------------|------------------------------------------|
C|-------------------------------------------|------------------------------------------|

F|----------------------------(5)(7)---------|---------------------------------|
C|--0-10-12-0-10-12-0-10-12-0-10-12-3-2-0-0--|--0-3-5-0-3-5-0-3-5-0-3-5-6-5-3--|
G|-------------------------------------------|---------------------------------|
C|-------------------------------------------|---------------------------------|

F|----------------------------(5)(7)---------|-------------------------------------------|
C|--0-10-12-0-10-12-0-10-12-0-10-12-3-2-0-0--|--0-12-14-0-14-15-0-15-17-0-17-18-0-18-19--|
G|-------------------------------------------|-------------------------------------------|
C|-------------------------------------------|-------------------------------------------|

F|--------------------------|-----------------------------|
C|--0--0--0--0--0--0--0--x0-|--0--0--0--0--0--0--6-5-3-0--|
G|--------------------------|-----------------------------| x4
C|--------------------------|-----------------------------|

pre-chorus
F|--------------------------|--------------------------|
C|--0--0--0--0--0--0--0--0--|--0--0--0--0--0--0--0--0--|
G|--------------------------|--------------------------|
C|--------------------------|--------------------------|

F|--------------------------|------------------|
C|--0--0--0--0--0--0--0--0--|--0---------------|
G|--------------------------|------------------| 
C|--------------------------|------------------|

chorus
F|-----------------------------------|-----------------------------------|
C|-----------------------------------|-----------------------------------|
G|--3-3-3-1-1-5-5-5------------------|-----------------/6-6-6-6-6-6-6-6--|
C|------------------3-3-3-3-3-3-3-3--|--3-3-3-3-3-3-3-3------------------|

F|-----------------------------------|-----------------------------------|
C|-----------------------------------|-----------------------------------|
G|--3-3-3-1-1-5-5-5------------------|-----------------/6-6-6-6-6-6-6-6--|
C|------------------0-0-0-0-0-0-0-0--|--3-3-3-3-3-3-3-3------------------|

F|-----------------------------------|-----------------------------------|
C|-----------------------------------|-----------------------------------|
G|--3-3-3-1-1-5-5-5------------------|-----------------/6-6-6-6-6-6-6-6--|
C|------------------3-3-3-3-3-3-3-3--|--3-3-3-3-3-3-3-3------------------|

F|-----------------------------------|-----------------------------------|
C|-----------------------------------|-----------------------------------|
G|--3-3-3-1-1-5-5-5------------------|-----------------------------------|
C|------------------0-0-0-0-0-0-0-0--|--3-3-3-3-3-3-3-3-5-5-5-5-6-5-3-0--|

bridge
F|--------------------------|-----------------------------|
C|-----------------x-x-x-0--|--------------------6-5-3-0--|
G|--------------------------|-----------------------------| x2
C|--------------------------|-----------------------------|

break

chorus
F|-----------------------------------|-----------------------------------|
C|-----------------------------------|-----------------------------------|
G|--3-3-3-1-1-5-5-5------------------|-----------------/6-6-6-6-6-6-6-6--|
C|------------------3-3-3-3-3-3-3-3--|--3-3-3-3-3-3-3-3------------------|

F|-----------------------------------|-----------------------------------|
C|-----------------------------------|-----------------------------------|
G|--3-3-3-1-1-5-5-5------------------|-----------------/6-6-6-6-6-6-6-6--|
C|------------------0-0-0-0-0-0-0-0--|--3-3-3-3-3-3-3-3------------------|

F|-----------------------------------|-----------------------------------|
C|-----------------------------------|-----------------------------------|
G|--3-3-3-1-1-5-5-5------------------|-----------------/6-6-6-6-6-6-6-6--|
C|------------------3-3-3-3-3-3-3-3--|--3-3-3-3-3-3-3-3------------------|

F|-----------------------------------|-----------------------------------|
C|-----------------------------------|-----------------------------------|
G|--3-3-3-1-1-5-5-5------------------|-----------------------------------|
C|------------------0-0-0-0-0-0-0-0--|--3-3-3-3-3-3-3-3-5-5-5-5-6-5-3-0--|

outro
F|----------------------------(5)(7)---------|---------------------------------|
C|--0-10-12-0-10-12-0-10-12-0-10-12-3-2-0-0--|--0-3-5-0-3-5-0-3-5-0-3-5-6-5-3--|
G|-------------------------------------------|---------------------------------|
C|-------------------------------------------|---------------------------------|

F|----------------------------(5)(7)---------|------------------------------------------|
C|--0-10-12-0-10-12-0-10-12-0-10-12-3-2-0-0--|--0-12-14-0-14-15-0-15-17-0-18\--6-5-3-0--|
G|-------------------------------------------|------------------------------------------|
C|-------------------------------------------|------------------------------------------|

F|-------------------------------------------|---------------------------------|
C|-------------------------------------------|---------------------------------|
G|----------------------------(3)(5)---------|---------------------------------|
C|--0-10-12-0-10-12-0-10-12-0-10-12-3-2-0-0--|--0-3-5-0-3-5-0-3-5-0-3-5-6-5-3--|

F|-------------------------------------------|--------------------------------------------|
C|-------------------------------------------|--------------------------------------------|
G|----------------------------(3)(5)---------|--------------------------------------------|
C|--0-10-12-0-10-12-0-10-12-0-10-12-3-2-0-0--|--0-12-14-0-14-15-0-15-17-0-17-18-0-18-19\--|

| /  slide up
| \  slide down
| x  Mute note
===============================================================================

            
            
Suggest correction
Creating personal tab
Creating personal tab
You can edit any tab online and save it as your Personal.

You can edit, replace or remove any tab part or add personal notes – all changes will be seen only by you.

Personal tabs can be accessed anytime from any device, even offline.
Learn more »
comments
print report bad tab
guest
You may want to rate the tab now too:
select rating
Wanna post a correction for this tab? Suggest correction