Oops, an error
Loading. Please wait.

We Are Not Good People Tab

version 1
version 1

Whole song

Interactive

8,428 views 3 this week
5 commentsread comments
1 2 3 4 5
excellent!
x 6
add to favorites
launch autoscroll
font size
0
reset
how to read this tab
guitar tuner
Autoscroll
slow
fast
+/-
esc
set tempo
stop
Help us to improve Ultimate-Guitar.com Take our survey!
×
Author
Some of this is bloody fast. Sounds like it's just the one guitar through the majority 
of it.

Intro - Main Riff

D||------------|--------------------------------|--------------------------------|
A||------------|--------------------------------|--------------------------------|
F||------------|--------------------------------|--------------------------------|
C||------------|--------------------------------|--------------------------------|
G||------------|----3-5---3-5---3-5---3-5-------|--------------------------------|
C||------6-5-3-|0-------0-----0-----0-----3-2-0-|0---3-5-0-3-5-0-3-5-0-3-5-6-5-3-|

  |  Only play |
  |  the first |
  |    time    |


D||--------------------------------|-----------------------------------||
A||--------------------------------|-----------------------------------||
F||--------------------------------|-----------------------------------||
C||--------------------------------|-----------------------------------||
G||----3-5---3-5---3-5---3-5-------|----5-7---7-8---8-10---10-12-------||
C||0-------0-----0-----0-----3-2-0-|0-------0-----0------0-------6-5-3-||




1st Verse


D||--------------------------|--------------------------|--------------------------|
A||---6----8-----9-----10----|---6----8-----12----13----|---6----8-----11----12----|
F||---8b10-10b12-11b13-12b14-|---8b10-10b12-14b16-15b17-|---8b10-10b12-13b15-14b16-|
C||--------------------------|--------------------------|--------------------------|
G||--------------------------|--------------------------|--------------------------|
C||--------------------------|--------------------------|--------------------------|


D||---------------------------||
A||---14----15----17----18----||
F||---16b18-17b19-19b21-20b22-||
C||---------------------------||
G||---------------------------||
C||---------------------------||



Pre-Chorus


D||--------------------------------|--------------------------------|
A||--------------------------------|--------------------------------|
F||--------------------------------|--------------------------------|
C||0---0-2-0-3-0-5-0-6-0-5-0-3-2-0-|0---0-2-0-3-0-5-0-0-0-0-0-0-0-0-|
G||--------------------------------|--------------------------------|
C||--------------------------------|--------------------------------|

D||--------------------------------|----||
A||--------------------------------|----||
F||--------------------------------|----||
C||0---0-2-0-3-0-5-0-6-0-5-0-3-2-0-|0---||
G||--------------------------------|----||
C||--------------------------------|----||



Chorus


D||--------------------------------------|---------------------------------------------|
A||--------------------------------------|---------------------------------------------|
F||--------------------------------------|---------------------------------------------|
C||10------8-----12------3-------11------|10------8------12------0------3------11------|
G||10-(x3)-8-(3)-12-(x3)-3-(x15)-11-(x8)-|10-(x3)-8-(x3)-12-(x3)-0-(x7)-3-(x8)-11-(x8)-|
C||10------8-----12------3-------11------|10------8------12------0------3------11------|


D||--------------------------------------|----------------------------------------------------||
A||--------------------------------------|----------------------------------------------------||
F||--------------------------------------|----------------------------------------------------||
C||10------8-----12------3-------11------|10------8------12------0------3------5------6-5-3-0-||
G||10-(x3)-8-(3)-12-(x3)-3-(x15)-11-(x8)-|10-(x3)-8-(x3)-12-(x3)-0-(x7)-3-(x8)-5-(x4)-6-5-3-0-||
C||10------8-----12------3-------11------|10------8------12------0------3------5------6-5-3-0-||




2nd Verse


D||---10----8--6\5-------|---10--8--6\5-------|--------------------|-----------------||
A||-----10---8-----6-3vvv|-----10-8-----6-9b10|---10--8--6-5-------|---6--65-65-68\\\||
F||----------------------|--------------------|-----7--6-----6-4vvv|----7------------||
C||----------------------|--------------------|--------------------|-----------------||
G||----------------------|--------------------|--------------------|-----------------||
C||----------------------|--------------------|--------------------|-----------------||



Shredding/Solo/Thing


These are the chords in the background.

D||-------------|-------------||
A||-------------|-------------||
F||-------------|-------------||
C||x-x-x-0------|6-5-3-0------||
G||x-x-x-0------|6-5-3-0------||
C||x-x-x-0------|6-5-3-0------||

As for the actual solo I haven't a fucking clue. All I know is that he's using some 
pitch shifter pedals in there and some daft tapping shit.
Suggest correction
comments
print report bad tab
5 comments total. Showing first comments.
-1 reply
MeWithLove 10 wrote on October 1 2012, 10:17 am

What tuning is this?

0 reply
mc3wan 10 wrote on January 4 2013, 02:51 pm

What on earth is this tuning?

+6 reply
TheMansonMan 121 wrote on January 5 2013, 10:26 am

Drop C. Usually used by metal bands, nice to see that Bloc Party have ventured into it.

guest
You may want to rate the tab now too:
select rating
Wanna post a correction for this tab? Suggest correction