Oops, an error
Loading. Please wait.

We Were Lovers Bass Tab

version 2
version 2

Whole song

125 views 1 this week
no commentswrite comment
1 2 3 4 5
please rate
add to favorites
launch autoscroll
font size
0
reset
guitar tuner
Autoscroll
slow
fast
+/-
esc
set tempo
stop
Help us to improve Ultimate-Guitar.com Take our survey!
×
Author
Difficulty
intermediate
(0:44) x4
G|5~--------------|----------------|10~-------------|9~--------------|
D|7~--------------|----------------|7~--------------|7~--------------|
A|0~--------------|----------------|0~--------------|0~--------------|
E|----------------|----------------|----------------|----------------|

G|5~--------------|----------------|7~--------------|4~--------------|
D|3~--------------|----------------|5~--------------|5~--------------|
A|3~--------------|----------------|5~--------------|5~--------------|
E|----------------|----------------|----------------|----------------|



(1:28)
G|----------------|----------------|----------------|----------------|
D|----------------|----------------|----------------|----------------|
A|5h7-7-7-7-7-7-7-|5h7-7-7-7-7-0-5-|7h8-8-8-8-8-8-8-|7h8-8-8-8-8-8-0-|
E|----------------|----------------|----------------|----------------|x3

G|----------------|----------------|----------------|------------------------|
D|----------------|----------------|----------------|------------------------|
A|5h7-7-7-7-7-7-7-|5h7-7-7-7-7-0-5-|7h8-8-8-8-8-8-8-|10-10-10-10-10-10-10-10-|
E|----------------|----------------|----------------|------------------------|x1



(1:50) x1
G|5~--------------|----------------|9~--------------|----------------|
D|7~--------------|----------------|7~--------------|----------------|
A|0~--------------|----------------|0~--------------|----------------|
E|----------------|----------------|----------------|----------------|

G|5~--------------|----------------|4~--------------|5~------4~------|
D|7~--------------|----------------|5~--------------|5~------5~------|
A|0~--------------|----------------|5~--------------|5~------5~------|
E|----------------|----------------|----------------|----------------|



(2:01) x2
G|5~--------------|----------------|10~-------------|9~--------------|
D|7~--------------|----------------|7~--------------|7~--------------|
A|0~--------------|----------------|0~--------------|0~--------------|
E|----------------|----------------|----------------|----------------|

G|5~--------------|----------------|7~--------------|4~--------------|
D|3~--------------|----------------|5~--------------|5~--------------|
A|3~--------------|----------------|5~--------------|5~--------------|
E|----------------|----------------|----------------|----------------|



(2:22)
G|----------------|----------------|----------------|----------------|
D|----------------|----------------|----------------|----------------|
A|5h7-7-7-7-7-7-7-|5h7-7-7-7-7-0-5-|7h8-8-8-8-8-8-8-|7h8-8-8-8-8-8-0-|
E|----------------|----------------|----------------|----------------|x3

G|----------------|----------------|----------------|------------------------|
D|----------------|----------------|----------------|------------------------|
A|5h7-7-7-7-7-7-7-|5h7-7-7-7-7-0-5-|7h8-8-8-8-8-8-8-|10-10-10-10-10-10-10-10-|
E|----------------|----------------|----------------|------------------------|x1



(2:44) x2
G|------------------------|-----------------------|
D|------------------------|------------------9-10-|
A|12-12-12-12-12-12-12-10-|12-12-12-12-12-12------|
E|------------------------|-----------------------|

G|------------------------|------------------------|
D|12-12-12-12-12-12-12-12-|------------------------|
A|------------------------|10-10-10-10-10-10-10-10-|
E|------------------------|------------------------|

G|------------------------|-----------------------|
D|------------------------|------------------9-10-|
A|12-12-12-12-12-12-12-10-|12-12-12-12-12-12------|
E|------------------------|-----------------------|

G|----------------|----------------|
D|----------------|----------------|
A|8-8-8-8-8-8-8-8-|5-5-5-5-5-5-5-0-|
E|----------------|----------------|



(3:06)
G|----------------|----------------|----------------|----------------|
D|----------------|----------------|----------------|----------------|
A|5h7-7-7-7-7-7-7-|5h7-7-7-7-7-0-5-|7h8-8-8-8-8-8-8-|7h8-8-8-8-8-8-0-|
E|----------------|----------------|----------------|----------------|x1

G|----------------|----------------|----------------|----------------|
D|----------------|----------------|----------------|----------------|
A|5h7-7-7-7-7-7-7-|5h7-7-7-7-7-0-5-|7h8-8-8-8-8-8-8-|3-3-3-3-3-3-3-0-|
E|----------------|----------------|----------------|----------------|x1

G|----------------|----------------|----------------|----------------|
D|----------------|----------------|----------------|----------------|
A|5h7-7-7-7-7-7-7-|5h7-7-7-7-7-0-5-|7h8-8-8-8-8-8-8-|7h8-8-8-8-8-8-0-|
E|----------------|----------------|----------------|----------------|x1

G|----------------|----------------|----------------|------------------------|
D|----------------|----------------|----------------|------------------------|
A|5h7-7-7-7-7-7-7-|5h7-7-7-7-7-0-5-|7h8-8-8-8-8-8-8-|10-10-10-10-10-10-10-10-|
E|----------------|----------------|----------------|------------------------|x1



(3:28) x2
G|5~--------------|----------------|10~-------------|9~--------------|
D|7~--------------|----------------|7~--------------|7~--------------|
A|0~--------------|----------------|0~--------------|0~--------------|
E|----------------|----------------|----------------|----------------|

G|5~--------------|----------------|7~--------------|4~--------------|
D|3~--------------|----------------|5~--------------|5~--------------|
A|3~--------------|----------------|5~--------------|5~--------------|
E|----------------|----------------|----------------|----------------|

End on:
G|5~--------------|
D|7~--------------|
A|0~--------------|
E|----------------|
Suggest correction
Give kudos to tab author, rate the tab!
1 2 3 4 5
comments
print report bad tab
guest
You may want to rate the tab now too:
select rating
Please do not post tabs as comments. Select "correction" instead!