Oops, an error
Loading. Please wait.

Hated Because Of Great Qualities chords

version 2
version 2

Whole song

  • It has solo part and outro (something is bad i will upload tomorrow).

Interactive

145 views 18 this week
8 commentsread comments
1 2 3 4 5
3 more votes to show rating
add to favorites
×
Save as Personal and add changes to this tab that will be seen only by you. Learn more ›
×
You can save this tab as Personal to edit and correct it or add notes. All changes will be seen only by you. Learn more »
launch autoscroll
font size
0
reset
transpose
0
reset
display chords
guitar tuner
edit
Autoscroll
slow
fast
+/-
esc
set tempo
stop
About this tab version
It has solo part and outro (something is bad i will upload tomorrow). Was this info helpful? Yes No
Strumming Is this strumming pattern correct? Yes No
All song except Outro and chorus 120 bpm
1
&
2
&
3
&
4
&
Listen
[Verse]
D#m                C#
Secret, so sorry, but I forgot
  G#                         B                
Secret, secret, we are bound to forget
    D#m      
I was worried I might be rude to you
   C#
So worried that I was
       G# 
It's a lie to serve the truth
        B
And I'm still guilty

[Bridge] 
A#    B  
Oh, I missed
A#   
So be it

[Verse]
D#m             C#
 Everywhere, everything you ever touch
        G#  
Cutting it won't do it
         B
There's nothing to it
        D#m     
You were sorry that I was alone
    C#
So sorry you ran away
        G#                B
Putting it on me, but you already knew it

[Bridge]
A#                        B  
Oh, it was never meant to be
A#    
So be it

[Chorus]
D#m    F#          B             G#m
  I can't understand this at all,     
D#m    F#          B             G#m
  I can't pronounce this at all
G#m             A# B
These are different matters
A#
These are uncertain feelings
G#m             A# B           A#
These should never be discussed
                    D#m
So keep it to yourself

[Solo]
e|---------------------------------------------------------------------------|
B|----------------------------------6-7--6-----------------------------------|
G|------------------------------------------8--6-------------8---------------|
D|--3-4--3----------------------------------------6---------------6----------|
A|----------6--4-------------------------------------------------------------|
E|----------------6----------------------------------------------------------|

e|---------------------------------------------------------------------------|
B|--6-7--6-------------------------------------------------------------------|
G|----------8--6-------------8---------------------4-------------------------|
D|----------------8---------------6-----------8------------------------------|
A|---------------------------------------------------------------------------|
E|---------------------------------------------------------------------------|

[Bridge]        
A#    B  
Oh, I missed
A#   
So be it

[Verse]
D#m             C#
    Everywhere, everything you ever touch
        G#  
Cutting it won't do it
         B
There's nothing to it
        D#m     
You were sorry that I was alone
    C#
So sorry you ran away
        G#                B
Putting it on me, but you already knew it

[Bridge]
A#                        B  
Oh, it was never meant to be
A#    
So be it

[Chorus]
D#m    F#          B             G#m
  I can't understand this at all,     
D#m    F#          B             G#m
  I can't pronounce this at all
G#m             A# B
These are different matters
A#
These are uncertain feelings
G#m             A# B           A#
These should never be discussed
                    Cm  B 
So keep it to yourself

[Outro]
e|--8---7---------------------------------------------------------------------|
B|--8---8---------8---8------8---8--------------------------------------------|
G|--8---7-----------8----------7----------------------------------------------|
D|--10--9------10---------9---------------------------------------------------|
A|--10--9---------------------------------------------------------------------|
E|--8---7---------------------------------------------------------------------|

            
            
Suggest correction
Creating personal tab
Creating personal tab
You can edit any tab online and save it as your Personal.

You can edit, replace or remove any tab part or add personal notes – all changes will be seen only by you.

Personal tabs can be accessed anytime from any device, even offline.
Learn more »
Give kudos to tab author, rate the tab!
1 2 3 4 5
comments
print report bad tab
8 comments total. Showing first comments.
0 reply
NosferatuZodd09 1,248 May 07, 2017 06:00 AM

wish it was guitar pro lol

guest
You may want to rate the tab now too:
select rating
Wanna post a correction for this tab? Suggest correction