Oops, an error
Loading. Please wait.

Atomic bass

version 1
version 1

Whole song

Interactive

by Blondie
19,674 views 90 this week
2 commentsread comments
1 2 3 4 5
x 6
add to favorites
×
Save as Personal and add changes to this tab that will be seen only by you. Learn more ›
×
You can save this tab as Personal to edit and correct it or add notes. All changes will be seen only by you. Learn more »
launch autoscroll
font size
0
reset
guitar tuner
backing track
0:00
0:00
edit
Autoscroll
slow
fast
+/-
esc
set tempo
stop
Author
Unregistered
[0.00]
G|-------------------------------------------------------------------|
D|-------------------------------------------------------------------|
A|-7-7-7-7-7-7-7-7-3-3-3-3-3-3-3-3-----------------5-5-5-5-5---------|
E|---------------------------------5-5-5-5-5-5-5-5-----------7\------|

[0.13]
G|--9-9-9-9-9-9-9-9-5-5-5-5-5-5-5-5------------------7-7-7-7---------|
D|----------------------------------7-7-7-7-7-7-7-7----------9-9-9-9-|
A|-7-7-7-7-7-7-7-7-3-3-3-3-3-3-3-3------------------5-5-5-5----------|
E|---------------------------------5-5-5-5-5-5-5-5----------7-7-7-7--|

G|--9-9-9-9-9-9-9-9-5-5-5-5-5-5-5-5------------------7-7-7-7---------|
D|----------------------------------7-7-7-7-7-7-7-7----------9-9-9-9-|
A|-7-7-7-7-7-7-7-7-3-3-3-3-3-3-3-3------------------5-5-5-5----------|
E|---------------------------------5-5-5-5-5-5-5-5----------7-7-7-7--|

[0.42]
G|--------------------------2---4----6---9---11---9---6---2-|
D|-------------------6-9------------------------------------|
A|-7---7-7---7-7---7------0---2---4----7----9---7---4---0---|
E|----------------------------------------------------------|

G|-------------------------------------------------|
D|-------------------4-----------------------------|
A|-5---5-5---5-5---5---5---------------------------|
E|-----------------------5--7---7-7---7-7--5--4--2-|

G|--------------------------2---4----6---9---11---9---6---2-|
D|-------------------6-9------------------------------------|
A|-7---7-7---7-7---7------0---2---4----7----9---7---4---0---|
E|----------------------------------------------------------|

G|-------------------------------------------------|
D|-------------------4-----------------------------|
A|-5---5-5---5-5---5---5---------------------------|
E|-----------------------5--7---7-7---7-7--5--4--2-|

G|--------------------------2---4----6---9---11---9---6---2-|
D|-------------------6-9------------------------------------|
A|-7---7-7---7-7---7------0---2---4----7----9---7---4---0---|
E|----------------------------------------------------------|

G|--------------------------------------------------|
D|-------------------4----------------------------9-|
A|-5---5-5---5-5---5---5-----------------------9----|
E|-----------------------5--7---7-7---7-7--11-------|

[1.25]
G|------------------------------------------------|
D|------------------------------------------------|
A|-10-10-10-10-10-10-10-10-5--5--5--5--5--5--5--5-|
E|------------------------------------------------|

G|---------------------------2---4---5---6---|
D|-------------------------------------------|
A|-7--7--7--7--7--7--7--7--0---2---3---4---5-|
E|-------------------------------------------|

[1.39]
G|-------------------------------------------------|
D|-------------------------------------------------|
A|-7-7---7-7---7-7---7-7---3-3---3-3---3-3---3-3---|
E|-------------------------------------------------|

G|-------------------------------------------------|
D|-------------------------------------------------|
A|-------------------------5-5---5-5---------------|(x4)
E|-5-5---5-5---5-5---5-5---------------7-7---7-7---|

[2.40]               repeat
G|------------12h13p12//////////////////////////-----|
D|------12---------------------------------------14\-|
A|--/14----14----------------------------------------|
E|---------------------------------------------------|

G|-------------------------------------------------------------------12/13---|
D|-----12-12-12h14-------12----------------------------12-12----12--------14-|
A|-/14-------------12h14--------10-10h12p10---10-12/14-------14---14\--------|
E|---------------------------12------------12--------------------------------|

G|-12----12-------------------------------------------------12-----|
D|----14----14-12-14-12----------------------12-12----12-14-----14-|
A|----------------------14-12-10----10-12/14-------14--------------|
E|-------------------------------12--------------------------------|

G|-------------------------|
D|----12-------------------|
A|-14----14----------------|
E|----------12\------------|

[3.02]
G|-------------------------------------------------------------------|
D|-------------------------------------------------------------------| repeat
A|-7-7-7-7-7-7-7-7-3-3-3-3-3-3-3-3-----------------5-5-5-5-5---------|  till
E|---------------------------------5-5-5-5-5-5-5-5-----------7-7-7-7-|  end

************************************

| \  Slide down
| h  Hammer-on
| p  Pull-off
| /  Slide up

************************************
Suggest correction
Creating personal tab
Creating personal tab
You can edit any tab online and save it as your Personal.

You can edit, replace or remove any tab part or add personal notes – all changes will be seen only by you.

Personal tabs can be accessed anytime from any device, even offline.
Learn more »
comments
print report bad tab
2 comments total.
0 reply
jouko forsti 380 Dec 20, 2009 08:55 AM

I would say this is excellent work!!

0 reply
swave75 382 Jun 14, 2012 04:19 PM

Very cool!

guest
Wanna post a correction for this tab? Suggest correction