Oops, an error
Loading. Please wait.

Call Me bass

version 1
version 1

Whole song

  • Originally tabbed by mr zee on the website BigBassTabs.com.

Interactive

by Blondie
6,932 views 57 this week
no commentswrite comment
1 2 3 4 5
x 10
add to favorites
×
Save as Personal and add changes to this tab that will be seen only by you. Learn more ›
×
You can save this tab as Personal to edit and correct it or add notes. All changes will be seen only by you. Learn more »
launch autoscroll
font size
0
reset
guitar tuner
backing track
0:00
0:00
edit
Autoscroll
slow
fast
+/-
esc
set tempo
stop
Author
Difficulty
Here is Blondie's Call Me for the Bass Guitar. There wasn't exactly any to choose from so I decided
To Tab out my own for my brother!

Enjoy

Bpm 140

[Intro]

G|-------|---------------|------------7--|---------------|---------------|
D|-------|------------5-3|--------------5|------------5-3|------------3--|
A|-------|5-5-5-5-5-5----|5-5-5-5-5-5----|5-5-5-5-5-5----|5-5-5-5-5-5---3|
E|-------|---------------|---------------|---------------|---------------|
  3 + 4 + 1 + 2 + 3 + 4 + 1 + 2 + 3 + 4 + 1 + 2 + 3 + 4 + 1 + 2 + 3 + 4 + 


[Verse 1]

G|---------------|---------------|---------------|---------------|---------------|---------------|
D|---------------|---------------|---------------|---------------|---------------|---------------|
A|5-5-5-5-5-5-5-5|1-1-1-1-1-1-1-1|5-5-5-5-5-5-5-5|1-1-1-1-1-1-1-1|---------------|---------------|
E|---------------|---------------|---------------|---------------|3-3-3-3-5-5-5-5|3-3-3-3-5-5-5-5|
  1 + 2 + 3 + 4 + 1 + 2 + 3 + 4 + 1 + 2 + 3 + 4 + 1 + 2 + 3 + 4 + 1 + 2 + 3 + 4 + 1 + 2 + 3 + 4 +


[Chorus]

G|---------------|---------------|---------------|---------------|
D|---------------|---------------|---------------|---------------|
A|5-5-5-5--------|--------1-1-1-1|5-5-5-5--------|--------1-1-1-1|
E|--------1-1-1-1|3-3-3-3--------|--------1-1-1-1|3-3-3-3--------|
  1 + 2 + 3 + 4 + 1 + 2 + 3 + 4 + 1 + 2 + 3 + 4 + 1 + 2 + 3 + 4 +


Post Chorus:

G|---------------|---------------|
D|------------5-3|------------3--|
A|5-5-5-5-5-5----|5-5-5-5-5-5---3|
E|---------------|---------------|
  1 + 2 + 3 + 4 + 1 + 2 + 3 + 4 + 


[Verse 2]

G|---------------|---------------|---------------|---------------|---------------|---------------|
D|---------------|---------------|---------------|---------------|---------------|---------------|
A|5-5-5-5-5-5-5-5|1-1-1-1-1-1-1-1|5-5-5-5-5-5-5-5|1-1-1-1-1-1-1-1|---------------|---------------|
E|---------------|---------------|---------------|---------------|3-3-3-3-5-5-5-5|3-3-3-3-5-5-5-5|
  1 + 2 + 3 + 4 + 1 + 2 + 3 + 4 + 1 + 2 + 3 + 4 + 1 + 2 + 3 + 4 + 1 + 2 + 3 + 4 + 1 + 2 + 3 + 4 +


[Chorus]

G|---------------|---------------|---------------|---------------|
D|---------------|---------------|---------------|---------------|
A|5-5-5-5--------|--------1-1-1-1|5-5-5-5--------|--------1-1-1-1|
E|--------1-1-1-1|3-3-3-3--------|--------1-1-1-1|3-3-3-3--------|
  1 + 2 + 3 + 4 + 1 + 2 + 3 + 4 + 1 + 2 + 3 + 4 + 1 + 2 + 3 + 4 +


Post Chorus:

G|----------------|----------------|
D|------------5-3-|------------7-5-|
A|5-5-5-5-5-5-----|7-7-7-7-7-7-----|
E|----------------|----------------|
  1 + 2 + 3 + 4 + 1 + 2 + 3 + 4 + 1 


[Bridge]

G|---------------|---------------|---------------|---------------|---------------|---------------|
D|2-2-2-2-2-2-2-2|---------------|2-2-2-2-2-2-2-2|---------------|3-3-3-3-3-3-3-3|---------------|
A|---------------|2-2-2-2-2-2-2-2|---------------|2-2-2-2-2-2-2-2|---------------|3-3-3-3-3-3-3-3|
E|---------------|---------------|---------------|---------------|---------------|---------------|
  1 + 2 + 3 + 4 + 1 + 2 + 3 + 4 + 1 + 2 + 3 + 4 + 1 + 2 + 3 + 4 + 1 + 2 + 3 + 4 + 1 + 2 + 3 + 4 +

G|-------------|---------------|---------------|-----------------|
D|-------------|---------------|---------------|-----------------|
A|5-5-5-5-5-5-5|1-1-1-1-1-1-1-1|---------------|-----------------|
E|-------------|---------------|3-3-3-3-3-3-3-3|5-5-5-5-5-5-5-5-5|
  1 + 2 + 3 + 4 + 1 + 2 + 3 + 4 + 1 + 2 + 3 + 4 + 1 + 2 + 3 + 4 + 


Bass During Synth and Guitar Solo:

G|---------------|---------------|---------------|---------------|---------------|---------------|
D|2-2-2-2-2-2-2-2|---------------|2-2-2-2-2-2-2-2|---------------|3-3-3-3-3-3-3-3|---------------|
A|---------------|2-2-2-2-2-2-2-2|---------------|2-2-2-2-2-2-2-2|---------------|3-3-3-3-3-3-3-3|
E|---------------|---------------|---------------|---------------|---------------|---------------|
  1 + 2 + 3 + 4 + 1 + 2 + 3 + 4 + 1 + 2 + 3 + 4 + 1 + 2 + 3 + 4 + 1 + 2 + 3 + 4 + 1 + 2 + 3 + 4 +

G|---------------|---------------|---------------|---------------|
D|---------------|---------------|---------------|---------------|
A|5-5-5-5-5-5-5-5|1-1-1-1-1-1-1-1|---------------|---------------|
E|---------------|---------------|3-3-3-3-3-3-3-3|5-5-5-5-5-5-5-5|
  1 + 2 + 3 + 4 + 1 + 2 + 3 + 4 + 1 + 2 + 3 + 4 + 1 + 2 + 3 + 4 + 


Final Chorus: (x3)

G|---------------|---------------|---------------|---------------|
D|---------------|---------------|---------------|---------------|
A|5-5-5-5--------|--------1-1-1-1|5-5-5-5--------|--------1-1-1-1|
E|--------1-1-1-1|3-3-3-3--------|--------1-1-1-1|3-3-3-3--------|
  1 + 2 + 3 + 4 + 1 + 2 + 3 + 4 + 1 + 2 + 3 + 4 + 1 + 2 + 3 + 4 +  

G|---------------|
D|---------------|
A|1--------------|
E|---------------|
  1 + 2 + 3 + 4 +



Well that is about it! I hope y'all enjoyed!
Suggest correction
Creating personal tab
Creating personal tab
You can edit any tab online and save it as your Personal.

You can edit, replace or remove any tab part or add personal notes – all changes will be seen only by you.

Personal tabs can be accessed anytime from any device, even offline.
Learn more »
comments
print report bad tab
guest
You may want to rate the tab now too:
select rating
Wanna post a correction for this tab? Suggest correction