Oops, an error
Loading. Please wait.

Heart Of Glass Tab

version 1
version 1

Solo

Whole song

Interactive

by Blondie
14,209 views 12 this week
2 commentsread comments
1 2 3 4 5
x 4
add to favorites
launch autoscroll
font size
0
reset
how to read this tab
guitar tuner
backing track
0:00
0:00
×
Best way to learn
"Heart Of Glass"
Autoscroll
slow
fast
+/-
esc
set tempo
stop
Author
Difficulty
Tuning
novice
E A D G B E
I can only figure out the solo (sorry)

e|----------------------------------------|
B|-------------------------------9--------|
G|---11--9------11--9--11--9h11----11--9--|
D|----------11----------------------------|
A|----------------------------------------|
E|----------------------------------------|

e|----------------------------------------|
B|------------------------------9---------|
G|---11--9------11--9--11--9h11----11--9--|
D|----------9-----------------------------|
A|----------------------------------------|
E|----------------------------------------|

Like I said I am sorry I couldnt get the rest of the song.
Anyway if you have any questions email me at 26mann-s@hartontc.co.uk

Tabbed by Sean Mann
Suggest correction
comments
print report bad tab
2 comments total.
0 reply
keneticshark24 135 Jul 04, 2007 01:41 AM

Awesome.

More Blondie tabs, please! :P

+1 reply
Brittany-xo-07 10 Dec 31, 2007 09:51 AM

Its deff down to a 4 instead of a 5

guest
You may want to rate the tab now too:
select rating
Wanna post a correction for this tab? Suggest correction