Oops, an error
Loading. Please wait.

One Way Or Another Bass Tab

version 1
version 1

Whole song

Interactive

52,895 views 105 this week
2 commentsread comments
1 2 3 4 5
x 8
add to favorites
launch autoscroll
font size
0
reset
guitar tuner
Autoscroll
slow
fast
+/-
esc
set tempo
stop
Help us to improve Ultimate-Guitar.com Take our survey!
×
Author
Blondie - One Way Or Another

Intro

G-----------------------|
D-----------------------|
A--5-4-3-2------2-3-4-5-|
E-----------------------|

G------------------------------------|
D------------------------------------|
A—5---5---5---5-5432---2---2---2-234-|
E---5---5---5--------2---2---2-------|


"One way, or another..."
G------------------------------------|
D------------------------------------|
A—5---5---5---5-5432---2---2---2-234-|
E---5---5---5--------2---2---2-------|

G------------------------------------|
D------------------------------------|
A—5---5---5---5-5432---2---2---2-----|
E---5---5---5--------2---2---2-------|


"I will drive past your house..."
G-----------------------------------|
D-----------------------------------|
A-2--2-0—--4--4-2---2--2-0—--2--240-|  x2
E-----2--------4—-------2-----------|

G-----------|
D-----------|
A-3-4-5-0-/-|
E-----------|


"One way, or another..."
G------------------------------------|
D------------------------------------|
A—5---5---5---5-5432---2---2---2-234-|
E---5---5---5--------2---2---2-------|

G------------------------------------|
D------------------------------------|
A—5---5---5---5-5432---2---2---2-----|
E---5---5---5--------2---2---2-------|


"And if the lights are all out..."
G-----------------------------------|
D-----------------------------------|
A-2--2-0—--4--4-2---2--2-0—--2--240-|  x2
E-----2--------4—-------2-----------|

G-----------|
D-----------|
A-3-4-5-0-/-|
E-----------|


GUITAR SOLO

G-------------------|
D-------------------|
A-----------22-2-44-|  x2
E-22-2-22-2---------|

G----------------------------------|
D----------------------------------|
A-----0000111122224444444455555555-|
E-2222-----------------------------|


"One way, or another..."
G------------------------------------|
D------------------------------------|
A—5---5---5---5-5432---2---2---2-234-|
E---5---5---5--------2---2---2-------|

G------------------------------------|
D------------------------------------|
A—5---5---5---5-5432---2---2---2-----|
E---5---5---5--------2---2---2-------|


Outro
G------------------|
D------------------|
A--5-5-5-5-2-2-2-2-|
E-5-5-5-5-2-2-2-2--|  Repeat until fade
Suggest correction
comments
print report bad tab
2 comments total.
0 reply
ooopyy 10 Mar 19, 2008 09:55 PM

well..... ur on the right track though its ok

0 reply
DomStables 294 Feb 11, 2010 01:41 PM

the verse is right, but try this for the chorus ;)

G|--------------------------------|
D|-5--5-5--9--9-9--7--7-7--4--4-4-|
A|-----5-------9-------7-------4--|
E|--------------------------------|

followed by

G|--------------------|
D|-5---7-9-2----4-----|
A|--------------------|
E|--------------------|

solo is almost there apart from the "b" note, that you say is played, its actually an "a" there.

i cba to work out the second part of the solo, but thats not quite right on here. hope these help.

guest
You may want to rate the tab now too:
select rating
Wanna post a correction for this tab? Suggest correction