Oops, an error
Loading. Please wait.

Camouflage Camouflage Tab

383 views 1 this week
no commentswrite comment
1 2 3 4 5
2 more votes to show rating
add to favorites
launch autoscroll
font size
0
reset
how to read this tab
guitar tuner
Autoscroll
slow
fast
+/-
esc
set tempo
stop
Help us to improve Ultimate-Guitar.com Take our survey!
×
Author
-------------------------------------------------------------------------------
                    Camouflage, Camouflage - The Blood Brothers
-------------------------------------------------------------------------------

E-mail: egiwolfi (xatx) yahoo (xdotx) de



TUNING: EADGBe (Standard, a 12-string electric guitar is used though)

This is a surprisingly easy song. Difficult to tab though, because the guitar is buried 
in the mix. Also, those are the riffs only, not how many times they are supposed to be played.


Intro/Guitar verse

e|----guitar--------------|-----piano----------------------|
B|------------------------|--------------------------------|
G|------------------------|--------------------------------|
D|------------------------|-------------------4-5-4--------|
A|------------------------|-------------7------------------|
E|---5h8p5h8p5-0----(x3)--|--------------------------------|


First Verse (piano only)

It's hard to reproduce those piano sounds with a guitar, I'm fairly sure though that the 
piano just plays the intro riff one octave higher. After a while, the guitar joins and 
it just goes back to the intro riff.

e|---------------------------------------|
B|---------------------------------------|
G|---------------------------------------|
D|---7h10p7h10p7-------(x3)------4-5-4---|
A|----------------7-----------7----------|
E|---------------------------------------|

Last time before chorus (guitar)

e|--------------------------------|
B|--------------------------------|
G|--------------------------------|
D|--------------------------------|
A|-----------------------7---5----|
E|--5h8p5h8p5-0--(x3)-------------|

Chorus

You could play the "2"s on the 7th fret of the A string, their guitar player slides down 
however, it's audible. It doesn't really matter though.

e|---------------------------------------------------------------------------|
B|---------------------------------------------------------------------------|
G|---------------------------------------------------------------------------|
D|--9---2---9---10---9---2---9---10---9---2---9---7---9---2--9--7--5---4-----|
A|---------------------------------------------------------------------------|
E|---------------------------------------------------------------------------|

Second verse

e|--------------------------------|
B|--------------------------------|
G|--------------------------------|
D|--------------------------------|
A|-----------------------7---5----|
E|--5h8p5h8p5-0--(x3)-------------|


Chorus again...

Piano break

Guitar obviously doesn't play, but you can try playing along with those chords:

Am  D  G  Em

"oh, oh" part

Play this a few times, then end on 5 on the low E string and let ring.

e|-----------------------------------------------------|
B|-----------------------------------------------------|
G|---------5---------7--------5---------5--------------|
D|------7----------6--------6---------7----------------|
A|-------------7-7------7-7-------8-8-----------7-7----|
E|--5-5-------------------------------------8-8--------|

"Outro"

These notes are hard to hear, until the mad strumming action starts. Let the first 9s 
ring and drone, after the first 12 the notes are picked rapidly. They probably sound so 
full and rich because of the 12-string guitar, I can't hear anything else apart from those notes.

e|---------------------------------------------------------------------------|
B|---------------------------------------------------------------------------|
G|--(9)-(9)--9--12---9-9-9-9-9-9--12-12--9-9-9-9--12-9-9-9-9-9-12--9-9-9-9---|
D|---------------------------------------------------------------------------|
A|---------------------------------------------------------------------------|
E|---------------------------------------------------------------------------|



************************************

| /   slide up
| \   slide down
| h   hammer-on
| p   pull-off
| ~   vibrato
| +   harmonic
| x   Mute note
| b   Bend
| pb  Pre-bend
| br  Bend release
| pbr Pre-bend release
| brb Bend release bend

************************************
Suggest correction
Give kudos to tab author, rate the tab!
1 2 3 4 5
comments
print report bad tab
guest
You may want to rate the tab now too:
select rating
Wanna post a correction for this tab? Suggest correction