Oops, an error
Loading. Please wait.

God Bless You Blood Thirsty Zeppelins bass

version 1
version 1

Whole song

Interactive

301 views 3 this week
no commentswrite comment
1 2 3 4 5
3 more votes to show rating
add to favorites
×
Save as Personal and add changes to this tab that will be seen only by you. Learn more ›
×
You can save this tab as Personal to edit and correct it or add notes. All changes will be seen only by you. Learn more »
launch autoscroll
font size
0
reset
guitar tuner
edit
Autoscroll
slow
fast
+/-
esc
set tempo
stop
God Bless You, Blood Thirsty Zeppelins!                     
The Blood Brothers
Bass


Credit for making this tab: stke


     Q       W                   W                   W                 
G||-------|-------------------|-------------------|-------------------|
D||-------|-------------------|-------------------|-------------------|
A||-------|-------------------|-------------------|-------------------|
E||-------|-------------------|-------------------|-------------------|


  W                   S S S E  S S E  S S E  S S S  
-------------------|-------------------------------|
-------------------|-------------------------------|
-------------------|-------------------------------|
-------------------|----0-2-L--2-2-L--3-3-L--3-0-2-|


  S S E  S S E  S S E  S S S S    S S E  S S E  S S E  S S S S  
-------------------------------|-------------------------------|
-------------------------------|-------------------------------|
-------------------------------|-------------------------------|
--L-0-2----2-2----3-3----3-0-2-|--L-0-2----2-2--L-3-3--L-3-0-2-|


  S S E  S S E  S S E  S S S S    S S E  S S E  S S E  S S S S  
-------------------------------|-------------------------------|
-------------------------------|-------------------------------|
-------------------------------|-------------------------------|
--L-0-2----2-2--L-3-3----3-0-2-|--L-0-2----2-2--L-3-3--L-3-0-2-|


  S S E  S S E  S S E  S S S S    S S E  S S E  S S E  S S S S  
-------------------------------|-------------------------------|
-------------------------------|-------------------------------|
-------------------------------|-------------------------------|
--L-0-2--L-2-2--L-3-3--L-3-0-2-|--L-0-2----2-2--L-3-3--L-3-0-2-|


  S S E  S S E  S S E  S E    S    S S S S S S S S S S S S S S S S  
--------------------------------|----------------------------------|
--------------------------------|----------------------------------|
----------------------------4g4-|--4-4-4-4-4-4-4-4-4-4-4-4-4-4-4-4-|
--L-0-2----2-2--L-3-3--L-3------|----------------------------------|


  S S S S S S S S S S S S  S  S  S  S    S S E  S S E  E  E  S S S S  
--------------------------------------|------------------------------|
--------------------------------------|------------------------------|
--5-5-5-5-5-5-5-5-5-5-5-5-10-10-10-10-|--L---------------------------|
--------------------------------------|----0-2--2-2-2--3--3--3-3-0-2-|


  S S E  S S E  E  E  S S S S    S S E  S S E  E  E  S S S S  
------------------------------|------------------------------|
------------------------------|------------------------------|
------------------------------|------------------------------|
--L-0-2--2-2-2--3--3--3-3-0-2-|--L-0-2--2-2-2--3--3--3-3-0-2-|


  S S E  S S E  E  Q    S S    S S E  E  E  S S S S S S S S  
----------------------------|-------------------------------|
----------------------------|-------------------------------|
----------------------------|-------------------------------|
--L-0-2--2-2-2--3---------2-|--L-0-2--2--2--3-3-3-0-3-3-0-2-|


  S S E  E  E  S S S S S S S S    S S E  E  E  S S S S S S S S  
-------------------------------|-------------------------------|
-------------------------------|-------------------------------|
-------------------------------|-------------------------------|
--L-0-2--2--2--3-3-3-0-3-3-0-2-|--L-0-2--2--2--3-3-3-0-3-3-0-2-|


  S S E  E  E  S S S S S S S   S    S S S S S S S S S S S S S S S S  
---------------------------------|----------------------------------|
---------------------------------|----------------------------------|
-----------------------------4g4-|--4-4-4-4-4-4-4-4-4-4-4-4-4-4-4-4-|
--L-0-2--2--2--3-3-3-0-3-3-0-----|----------------------------------|


  S S S S S S S S S S S S  S  S  S  S     H.           S S S S  
---------------------------------------|-----------------------|
---------------------------------------|-----------------------|
--5-5-5-5-5-5-5-5-5-5-5-5-10-10-10-10\-|-----------------------|
---------------------------------------|-----------------6-6-6-|


  H.           S S S S    H.           S S S S    S S E  S S E  S S E   
-----------------------|-----------------------|-----------------------|
-----------------------|-----------------------|-----------------------|
-----------------------|-----------------------|---------4-4-4--4-4-4--|
-----------------6-6-6-|-----------------6-6-6-|--2-2-2----------------|


  H.           S S S S    H.           S S S S    H.           S S S S  
-----------------------|-----------------------|-----------------------|
-----------------------|-----------------------|-----------------------|
-----------------------|-----------------------|-----------------------|
-----------------6-6-6-|-----------------6-6-6-|-----------------6-6-6-|


  S S E  S S E  S S E     S S S S S S S S S S S S S S S S  
-----------------------|----------------------------------|
-----------------------|----------------------------------|
---------4-4-4--4-4-4--|----------------------------------|
--2-2-2----------------|--2-2-2-2-2-2-2-2-2-2-2-2-2-6-6-6-|


  S S S S S S S S S S S S S S S S    S S S S S S S S S S S S S S S S  
----------------------------------|----------------------------------|
----------------------------------|----------------------------------|
----------------------------------|----------------------------------|
--2-2-2-2-2-2-2-2-2-2-2-2-2-6-6-6-|--2-2-2-2-2-2-2-2-2-2-2-2-2-6-6-6-|


  S S E  S S E  S S E     S S S S S S S S S S S S S S S S  
-----------------------|----------------------------------|
-----------------------|----------------------------------|
---------4-4-4--4-4-4--|----------------------------------|
--2-2-2----------------|--2-2-2-2-2-2-2-2-2-2-2-2-2-6-6-6-|


  S S S S S S S S S S S S S S S S    S S S S S S S S S S S S S S S S  
----------------------------------|----------------------------------|
----------------------------------|----------------------------------|
----------------------------------|----------------------------------|
--2-2-2-2-2-2-2-2-2-2-2-2-2-6-6-6-|--2-2-2-2-2-2-2-2-2-2-2-2-2-6-6-2-|


  E  E  H           H        E.  S    E  E  H           H        E.  S  
-----------------|-----------------|-----------------|-----------------|
-----------------|-----------------|-----------------|-----------------|
-----------------|-----------------|-----------------|-----------------|
--L--0-----------|---------------2-|--L--0-----------|---------------2-|


  E  E  H           H        E.  S    E  E  H           Q.     S  
-----------------|-----------------|-----------------|-----------|
-----------------|-----------------|-----------------|-----------|
-----------------|-----------------|-----------------|-----------|
--L--0-----------|---------------2-|--L--0-----------|-----------|


  W                   E  E  E  E  E  E  E  E     E  E  E  E  E  E  E  E   
-------------------|--------------------------|--------------------------|
-------------------|--------------------------|--------------------------|
-------------------|--------------------------|--4--4--4-----4--4--4-----|
-------------------|--2--2--2-----2--2--2-----|--------------------------|


  Q    Q    E  E  E  E     E  E  E  E  E  E  E  E     E  E  E  E  E  E  E  E   
------------------------|--------------------------|--------------------------|
------------------------|--------------------------|--------------------------|
--4---------4--4--4-----|--------------------------|--4--4--4-----4--4--4-----|
-------2----------------|--2--2--2-----2--2--2-----|--------------------------|


  Q    Q    E  E  E  E     E  E  E  E  E  E  E  E     E  E  E  E  E  E  E  E   
------------------------|--------------------------|--------------------------|
------------------------|--------------------------|--------------------------|
------------4--4--4-----|--------------------------|--4--4--4-----4--4--4-----|
-------2----------------|--2--2--2-----2--2--2-----|--------------------------|


  Q    Q    E  E  E  E     E  E  E  E  E  E  E  E     E  E  E  E  E  E  E  E   
------------------------|--------------------------|--------------------------|
------------------------|--------------------------|--------------------------|
--4---------4--4--4-----|--------------------------|--4--4--4-----4--4--4-----|
-------2----------------|--2--2--2-----2--2--2-----|--------------------------|


  Q    Q    E  E  E  E     E  E  Q    Q     Q        E  E  Q     E  E  E   E   
------------------------|-------------------------|---------------------------|
------------------------|-------------------------|---------------------------|
------------4--4--4-----|-------------8S----5S----|-----8--8\-------8--8S--0--|
-------2----------------|--2--2--2----------------|---------------------------|


  E  E  Q    E  E  E  E     E  E  E  E  E  E  E  E   
-------------------------|--------------------------|
-------------------------|--------------------------|
--5-----5----4--4--4--4--|--4--5--5--5--7--7--7--7--|
-------------------------|--------------------------|


  E  E  Q     E  E  E   E     E  E  Q    Q       W                 
---------------------------|------------------|-------------------|
---------------------------|------------------|-------------------|
-----8--8\-------8--7S--0--|--5-----5---------|-------------------|
---------------------------|------------------|-------------------|


  W                   W                   W                 
-------------------|-------------------|-------------------|
-------------------|-------------------|-------------------|
-------------------|-------------------|-------------------|
-------------------|-------------------|-------------------|


  S S S S S S S S S S S S S S S S    S S S S S S S S S S S S S S S S  
----------------------------------|----------------------------------|
----------------------------------|----------------------------------|
----------------------------------|----------------------------------|
----0-2---2-2-2---3---3---3-3-0-2-|--L-0-2---2-2-2---3---3---3-3-0-2-|


  S S S S S S S S S S S S S S S S    S S S S S S S S S S S E.  S S  
----------------------------------|--------------------------------|
----------------------------------|--------------------------------|
----------------------------------|--------------------------------|
--L-0-2---2-2-2---3---3---3-3-0-2-|--L-0-2---2-2-2---3---3-----3-2-|


      TP   TP    TP  TP TP TP        TP    TP           
  S S Q    E  E  E.  S  S  S     E.  E  E  Q.     E  S  
------------------------------|------------------------|
------------------------------|------------------------|
------------------------------|------------------------|
--L-0-2----3-----3---2--0--2--|--L---2-----3------L--3-|


  S S S S S S S S S S S S S S S S    S S S S S S S S S S S E.  S S  
----------------------------------|--------------------------------|
----------------------------------|--------------------------------|
----------------------------------|--------------------------------|
--L-0-2---2-2-2---3---3---3-3-0-2-|--L-0-2---2-2-2---3---3-----3-2-|


  S S S S S S S S S S S S S S S S    S S S S S S S S S S S S S S S S  
----------------------------------|----------------------------------|
----------------------------------|----------------------------------|
----------------------------------|----------------------------------|
--L-0-2---2---2---3-3-3-0-3-3-0-2-|--L-0-2---2---2---3-3-3-0-3-3-0-2-|


            TP                                                                
  H         H            W                   S S S S S S S S S S S S S S S S  
----------------------|-------------------|----------------------------------|
----------------------|-------------------|----------------------------------|
----------------------|-------------------|----------------------------------|
--L--------(2)--------|--L----------------|--2-2-2-2-2-2-2-2-2-2-2-2-2-6-6-6-|


  S S S S S S S S S S S S S S S S    S S S S S S S S S S S S S S S S  
----------------------------------|----------------------------------|
----------------------------------|----------------------------------|
----------------------------------|----------------------------------|
--2-2-2-2-2-2-2-2-2-2-2-2-2-6-6-6-|--2-2-2-2-2-2-2-2-2-2-2-2-2-6-6-6-|


  S S E  S S E  S S E     S S S S S S S S S S S S S S S S  
-----------------------|----------------------------------|
-----------------------|----------------------------------|
---------4-4-4--4-4-4--|----------------------------------|
--2-2-2----------------|--2-2-2-2-2-2-2-2-2-2-2-2-2-6-6-6-|


  S S S S S S S S S S S S S S S S    S S S S S S S S S S S S S S S S  
----------------------------------|----------------------------------|
----------------------------------|----------------------------------|
----------------------------------|----------------------------------|
--2-2-2-2-2-2-2-2-2-2-2-2-2-6-6-6-|--2-2-2-2-2-2-2-2-2-2-2-2-2-6-6-6-|


  S S E  S S E  S S E     S S S S S S S S S S S S S S S S  
-----------------------|----------------------------------|
-----------------------|----------------------------------|
---------4-4-4--4-4-4--|----------------------------------|
--2-2-2----------------|--2-2-2-2-2-2-2-2-2-2-2-2-2-6-6-6-|


  S S S S S S S S S S S S S S S S    S S S S S S S S S S S S S S S S  
----------------------------------|----------------------------------|
----------------------------------|----------------------------------|
----------------------------------|----------------------------------|
--2-2-2-2-2-2-2-2-2-2-2-2-2-6-6-6-|--2-2-2-2-2-2-2-2-2-2-2-2-2-6-6-6-|


  S S S S S S S S S S S S Q.        E  S S S S S S S S S S Q     
---------------------------------|------------------------------|
---------------------------------|------------------------------|
---------------------------------|--6--2-2-5-2-2-6-2-5-2-6------|
--2-2-2-2-2-2-2-2-2-2-2-2--------|------------------------------|


  E  S S S S S S S S S S. T S. T S    E  S S S S S S S S S S Q     
-----------------------------------|------------------------------|
-----------------------4----4----4-|------------------------------|
--6--2-2-5-2-2-6-2-5-2-------------|--6--2-2-5-2-2-6-2-5-2-6------|
-----------------------------------|------------------------------|


  E  S S S S S S S S S S S S E     W                 
--------------------------------|-------------------|
-------------------------4------|-------------------|
--6--2-2-5-2-2-5-2-6-2-2---5----|-------------------|
-----------------------------2--|-------------------|


  E  S S S S S S S S S S Q       E  S S S S S S S S S S. T S. T S  
------------------------------|-----------------------------------|
------------------------------|-----------------------------------|
--6--2-2-5-2-2-6-2-5-2-6------|--6--2-2-5-2-2-6-2-5-2-------------|
------------------------------|-----------------------2----2----2-|


  E  S S S S S S S S S S Q       E  S S S S S S S S S S. T S. T S  
------------------------------|-----------------------------------|
------------------------------|-----------------------------------|
--6--2-2-5-2-2-6-2-5-2-6------|--6--2-2-5-2-2-6-2-5-2-------------|
------------------------------|-----------------------2----2----2-|


  S S S S S S S S S S S S S S S S    S S S S S S S S S S S S S S S S  
----------------------------------|----------------------------------|
----------------------------------|----------------------------------|
----------6---------------6-----6-|----6-----6---------------6-------|
----2-2-2---2-2-2---2-2-2---2-2---|------2-2---2-2-2---2-2-2---2-2-2-|


  S S S S S S S S S S S S S S S S    S S S S S S S S S S S S S. T E   
----------------------------------|----------------------------------|
----------------------------------|----------------------------------|
----------6---------------6-----6-|----------6---------------6-------|
----2-2-2---2-2-2---2-2-2---2-2---|----2-2-2---2-2-2---2-2-2---------|


  TP                                                                            
  W                   W                   W                   W                 
-------------------|-------------------|-------------------|-------------------|
-------------------|-------------------|-------------------|-------------------|
-------------------|-------------------|-------------------|-------------------|
--2----------------|--L----------------|--L----------------|--L----------------|


           TP TP TP TP TP      TP TP TP TP TP TP TP TP TP TP TP       
  H        S  S  S  S  Q       S  S  S  S  S  S  E  S  S  S  S  Q     
----------------------------|----------------------------------------|
-----------9--7--6--5--4----|--0--1--4--2--0--3--4--9--7--5--4--L----|
----------------------------|----------------------------------------|
--L-------------------------|----------------------------------------|


       TP  TP   TP TP TP TP TP TP TP    TP   TP  TP   TP            
  Q    E.  S  S S  S  S  S  S  S  S     Q    E.  S  S E.  H         
-------------------------------------|-----------------------------|
--L----0---4--L-6--4--5--0--1--2--3--|--4----0---4--L-0------------|
-------------------------------------|-----------------------------|
-------------------------------------|-----------------------------|


  E  E  E  E  E  E  E  E     E  E  E  E  E  E  E  E     Q    Q    E  E  E  E   
--------------------------|--------------------------|------------------------|
--------------------------|--------------------------|------------------------|
--------------------------|--4--4--4-----4--4--4-----|--4---------4--4--4-----|
--2--2--2-----2--2--2-----|--------------------------|-------2----------------|


  E  E  E  E  E  E  E  E     E  E  E  E  E  E  E  E     Q    Q    E  E  E  E   
--------------------------|--------------------------|------------------------|
--------------------------|--------------------------|------------------------|
--------------------------|--4--4--4-----4--4--4-----|------------4--4--4-----|
--2--2--2-----2--2--2-----|--------------------------|-------2----------------|


  E  E  E  E  E  E  E  E     E  E  E  E  E  E  E  E     Q    Q    E  E  E  E   
--------------------------|--------------------------|------------------------|
--------------------------|--------------------------|------------------------|
--------------------------|--4--4--4-----4--4--4-----|--4---------4--4--4-----|
--2--2--2-----2--2--2-----|--------------------------|-------2----------------|


  E  E  E  E  E  E  E  E     E  E  E  E  E  E  E  E     Q    Q    E  E  E  E   
--------------------------|--------------------------|------------------------|
--------------------------|--------------------------|------------------------|
--------------------------|--4--4--4-----4--4--4-----|------------4--4--4-----|
--2--2--2-----2--2--2-----|--------------------------|-------2----------------|


  E  E  E  E  E  E  E  E     E  E  E  E  E  E  E  E   
--------------------------|--------------------------|
--------------------------|--------------------------|
--------------------------|--------------------------|
--2--2--2-----2--2--2-----|--2--2--2-----2--2--2-----|


  E  E  E  E  E  E  E  E     E  E  E  E  E  E  E  E     W                 
--------------------------|--------------------------|-------------------|
--------------------------|--------------------------|-------------------|
--------------------------|--------------------------|-------------------|
--2--2--2-----2--2--2-----|--2--2--2-----2--2--2-----|-------------------|


  W                   W                   W                 
-------------------|-------------------|-------------------|
-------------------|-------------------|-------------------|
-------------------|-------------------|-------------------|
-------------------|-------------------|-------------------|


  E  E  E  E  E  E  E  E     E  E  E  E  E  E  E  E   
--------------------------|--------------------------|
--------------------------|--------------------------|
--4--4--4-----4--4--4-----|--4--4--4-----4--4--4-----|
--------------------------|--------------------------|


  E  E  E  E  E  E  E  E     E  E  E  E  E  E  E  E    
--------------------------|--------------------------||
--------------------------|--------------------------||
--4--4--4-----4--4--4-----|--4--4--4-----4--4--4-----||
--------------------------|--------------------------||




Duration Legend
---------------
W - whole
H - half
Q - quarter
E - 8th
S - 16th
T - 32nd
X - 64th
. - note dotted
|-n-|  - n-tuplets


Tablature Legend
----------------
L - tied note
x - dead note
g - grace note
(n) - ghost note
> - accentuded note
NH - natural harmonic
AH - artificial harmonic
TH - tapped harmonic
SH - semi harmonic
PH - pitch harmonic
h - hammer on
p - pull off
b - bend
br - bendRelease
pb - preBend
pbr - preBendRelease
brb - bendReleaseBend
\n/ - tremolo bar dip
\n - tremolo bar dive
-/n - tremolo bar Release up
/n\ - tremolo bar inverted dip
/n - tremolo bar return
-\n - tremolo bar Release down
S - shift slide
s - legato slide
/ -  slide into from below or out of upwards
\ -  slide into from above or out of downwards
~ - vibrato
W - wide vibrato
tr - trill
TP - tremolo picking
T - tapping
S - slap
P - pop
< - fade in
^ - brush up
v - brush down
Suggest correction
Creating personal tab
Creating personal tab
You can edit any tab online and save it as your Personal.

You can edit, replace or remove any tab part or add personal notes – all changes will be seen only by you.

Personal tabs can be accessed anytime from any device, even offline.
Learn more »
Give kudos to tab author, rate the tab!
1 2 3 4 5
comments
print report bad tab
guest
You may want to rate the tab now too:
select rating
Wanna post a correction for this tab? Suggest correction