Oops, an error
Loading. Please wait.

God Bless You Blood Thirsty Zeppelins tab

version 1
version 1

Whole song

Interactive

910 views 1 this week
no commentswrite comment
1 2 3 4 5
2 more votes to show rating
add to favorites
×
Save as Personal and add changes to this tab that will be seen only by you. Learn more ›
×
You can save this tab as Personal to edit and correct it or add notes. All changes will be seen only by you. Learn more »
launch autoscroll
font size
0
reset
how to read this tab
guitar tuner
edit
Autoscroll
slow
fast
+/-
esc
set tempo
stop
God Bless You, Blood Thirsty Zeppelins!                     
The Blood Brothers
Guitar LEFT


Credit for making this tab: stke



      S   S   S   S     S S  S  S  S  S  S  S  S  S  S  S  S   S   S   S   
E||------------------|----------------------------------------------------|
B||------------------|----------------------------------------------------|
G||------------------|----------------------------------------------------|
D||------------------|----------------------------------------------------|
A||--(0)-(0)-(0)-(0)-|--L---(0)---(0)---(0)---(0)---(0)---(0)-(0)-(0)-(0)-|
E||---3---3---3---2--|--L----2-----2-----2-----3-----3-----3---3---3---2--|


  S S  S  S  S  S  S  S  S  S  S  S  S   S   S   S   
----------------------------------------------------|
----------------------------------------------------|
----------------------------------------------------|
----------------------------------------------------|
--L---(0)---(0)---(0)---(0)---(0)---(0)-(0)-(0)-(0)-|
--L----2-----2-----2-----3-----3-----3---3---3---2--|


  S S  S  S  S  S  S  S  S  S  S  S  S   S   S   S   
----------------------------------------------------|
----------------------------------------------------|
------------------------------------------------(0)-|
------------------------------------------------(0)-|
--L---(0)---(0)---(0)---(0)---(0)---(0)-(0)-(0)-(0)-|
--L----2-----2-----2-----3-----3-----3---3---3---2--|


  S S  S  S  S  S  S  S  S   S   S   S   S   S   S   S   
--------------------------------------------------------|
--------------------------------------------------------|
--L-------------------------------------------------(0)-|
--L-------------------------------------------------(0)-|
------(0)---(0)---(0)---(0)-(0)-(0)-(0)-(0)-(0)-(0)-(0)-|
--L----2-----2-----2-----3---3---3---0---3---3---3---2--|


  S S  S  S  S  S  S  S  S  S  S  S  S   S   S   S   
----------------------------------------------------|
----------------------------------------------------|
--L-------------------------------------------------|
--L---------------------------------(0)--L------(0)-|
--L---(0)---(0)---(0)---(0)---(0)---(0)-(0)-(0)-(0)-|
--L-0--2-----2-----2-----3-----3-----3---3---0---2--|


  S S  S  S  S  S  S  S  S  S  S  S  S   S   S   S   
----------------------------------------------------|
----------------------------------------------------|
----------------------------------------------------|
--L---------------------------------(0)--L------(0)-|
--L---(0)---(0)---(0)---(0)---(0)---(0)-(0)-(0)-(0)-|
--L-0--2-----2-----2-----3-----3-----3---3---0---2--|


  S S  S  S  S  S  S  S  S  S  S  S  S   S   S   S   
----------------------------------------------------|
----------------------------------------------------|
----------------------------------------------------|
--L---------------------------------(0)--L------(0)-|
--L---(0)---(0)---(0)---(0)---(0)---(0)-(0)-(0)-(0)-|
--L-0--2-----2-----2-----3-----3-----3---3---0---2--|


  S S  S  S  S  S  S  S  S   S   S   S   S   S   S   S   
--------------------------------------------------------|
--------------------------------------------------------|
--------------------------------------------------------|
--L---------------------(0)--L----------(0)--L------(0)-|
--L---(0)---(0)---(0)---(0)-(0)-(0)-(0)-(0)-(0)-(0)-(0)-|
--L-0--2-----2-----2-----3---3---3---0---3---3---0---2--|


  S S  S  S  S  S  S  S  S   S   S   S   S   S   S   S   
--------------------------------------------------------|
--------------------------------------------------------|
----------------------------------------------------(0)-|
--L---------------------(0)--L----------(0)--L------(0)-|
--L---(0)---(0)---(0)---(0)-(0)-(0)-(0)-(0)-(0)-(0)-(0)-|
--L-0--2-----2-----2-----3---3---3---0---3---3---0---2--|


  S S  S  S  S  S  S  S  S   S   S   S   S   S   S   S   
--------------------------------------------------------|
--------------------------------------------------------|
--L-----------------------------------------------------|
--L---------------------(0)--L----------(0)--L------(0)-|
--L---(0)---(0)---(0)---(0)-(0)-(0)-(0)-(0)-(0)-(0)-(0)-|
--L-0--2-----2-----2-----3---3---3---0---3---3---0---2--|


  S S  S  S  S  S  S  S  S   S   S   S   S   S   S   S   
--------------------------------------------------------|
--------------------------------------------------------|
--------------------------------------------------------|
--L---------------------(0)--L----------(0)--L------(0)-|
--L---(0)---(0)---(0)---(0)-(0)-(0)-(0)-(0)-(0)-(0)-(0)-|
--L-0--2-----2-----2-----3---3---3---0---3---3---0---2--|


  S S  S  S  S  S  S  S  S   S   S   S   S   S   S  S   
-------------------------------------------------------|
-------------------------------------------------------|
-------------------------------------------------------|
--L---------------------(0)--L----------(0)--L---------|
--L---(0)---(0)---(0)---(0)-(0)-(0)-(0)-(0)-(0)-(0)----|
--L-0--2-----2-----2-----3---3---3---0---3---3---0--2S-|


  E.   S  Q    H           H.            S   S   S   S   
------------------------|-------------------------------|
------------------------|-------------------------------|
------------------------|-------------------------------|
------------------------|---------------------------(0)-|
------------------------|---------------(0)-(0)-(0)-(0)-|
--L---(0)---------------|----------------3---3---3---2--|


  S S  S  S  S   S   S  S  S  S  S  S  S   S   S   S   
------------------------------------------------------|
------------------------------------------------------|
--------------------------------------------------(0)-|
--L-----------------------------------------------(0)-|
--L---(0)---(0)-(0)-(0)---(0)---(0)---(0)-(0)-(0)-(0)-|
--L-0--2-----2---2---2-----3-----3-----3---3---0---2--|


  S S  S  S  S   S   S  S  S  S  S  S  S   S   S   S   
------------------------------------------------------|
------------------------------------------------------|
--L-----------------------------------------------(0)-|
--L-----------------------------------(0)--L------(0)-|
--L---(0)---(0)-(0)-(0)---(0)---(0)---(0)-(0)-(0)-(0)-|
--L-0--2-----2---2---2-----3-----3-----3---3---0---2--|


  S S  S  S  S   S   S  S  S  S  S  S  S   S   S   S   
------------------------------------------------------|
------------------------------------------------------|
--L---------------------------------------------------|
--L-----------------------------------------------(0)-|
--L---(0)---(0)-(0)-(0)---(0)---(0)---(0)-(0)-(0)-(0)-|
--L-0--2-----2---2---2-----3-----3-----3---3---0---2--|


  S S  S  S  S   S   S  S  E   Q    S  S   
------------------------------------------|
------------------------------------------|
------------------------------------------|
--L-----------------------------------(0)-|
--L---(0)---(0)-(0)-(0)---(0)---------(0)-|
--L-0--2-----2---2---2-----3-----------2--|


  S S  S  S  S  S  S  S  S   S   S   S   S   S   S   S   
--------------------------------------------------------|
--------------------------------------------------------|
--------------------------------------------------------|
--L-------------------------------------------------(0)-|
--L---(0)---(0)---(0)---(0)-(0)-(0)-(0)-(0)-(0)-(0)-(0)-|
--L-0--2-----2-----2-----3---3---3---0---3---3---0---2--|


  S S  S  S  S  S  S  S  S   S   S   S   S   S   S   S   
--------------------------------------------------------|
--------------------------------------------------------|
--------------------------------------------------------|
--L-------------------------------------------------(0)-|
--L---(0)---(0)---(0)---(0)-(0)-(0)-(0)-(0)-(0)-(0)-(0)-|
--L-0--2-----2-----2-----3---3---3---0---3---3---0---2--|


  S S  S  S  S  S  S  S  S   S   S   S   S   S   S   S   
--------------------------------------------------------|
--------------------------------------------------------|
--------------------------------------------------------|
--L-------------------------------------------------(0)-|
--L---(0)---(0)---(0)---(0)-(0)-(0)-(0)-(0)-(0)-(0)-(0)-|
--L-0--2-----2-----2-----3---3---3---0---3---3---0---2--|


  S S  S  S  S  S  S  S  S   S   S   S   S   S   S   S   
--------------------------------------------------------|
--------------------------------------------------------|
--------------------------------------------------------|
--L-------------------------------------------------(0)-|
--L---(0)---(0)---(0)---(0)-(0)-(0)-(0)-(0)-(0)-(0)-(0)-|
--L-0--2-----2-----2-----3---3---3---0---3---3---0---2--|


  S S  S  S  S  S  S  S  S  S  S  S  S   S   S   S   
----------------------------------------------------|
----------------------------------------------------|
----------------------------------------------------|
--L---------------------------------------------(0)-|
--L---(0)---(0)---(0)---(0)---(0)---(0)-(0)-(0)-(0)-|
--L-0--2-----2-----2-----2-----2-----2---2---0---3--|


  S S  S  S  S  S  S  S  S  S  S  S  S   S   S   S   
----------------------------------------------------|
----------------------------------------------------|
----------------------------------------------------|
--L---------------------------------------------(0)-|
--L---(0)---(0)---(0)---(0)---(0)---(0)-(0)-(0)-(0)-|
--L-0--3-----3-----3-----3-----3-----3---3---3---0--|


  S S S S S S S S S S S S S E.     S S S S S S S S S S S S S E.   
----4---4---4---4---4---4-------|----4---4---4---4---4---4-------|
----7---7---7---7---6---7---0---|----6---7---7---7---6---5---0---|
----------------------------0---|----------------------------0---|
----------------------------0---|----------------------------0---|
--------------------------------|--------------------------------|
--------------------------------|--------------------------------|


  S S S S S S S S S S S S S E.     S S E  S S E  S S E   
----4---4---4---4---4---4-------|-----------------------|
----6---7---7---7---5---6---0---|-----------------------|
----------------------------0---|-----------------------|
----------------------------0---|-----------------------|
--------------------------------|---------4-4-4--4-4-4--|
--------------------------------|--2-2-2----------------|


  S S S S S S S S S S S S S E.     S S S S S S S S S S S S S E.   
----4---4---4---4---4---4-------|----4---4---4---4---4---4-------|
----7---7---7---7---6---7---0---|----6---7---7---7---6---5---0---|
----------------------------0---|----------------------------0---|
----------------------------0---|----------------------------0---|
--------------------------------|--------------------------------|
--------------------------------|--------------------------------|


  S S S S S S S S S S S S S E.     S S E  S S E  S S E   
----4---4---4---4---4---4-------|-----------------------|
----6---7---7---7---5---6---0---|-----------------------|
----------------------------0---|-----------------------|
----------------------------0---|-----------------------|
--------------------------------|---------4-4-4--4-4-4--|
--------------------------------|--2-2-2----------------|


  S S S S S S S S S S S S S S S S    S S S S S S S S S S S S S S S S  
----4---4---4---4---4---4---------|----4---4---4---4---4---4---------|
--x-7-x-7-x-7-x-7-x-6-x-7-x-------|--x-6-x-7-x-7-x-7-x-6-x-5-x-------|
--x---x---x---x---x---x---x-------|--x---x---x---x---x---x---x-------|
----------------------------------|----------------------------------|
----------------------------------|----------------------------------|
----------------------------6-6-6-|----------------------------6-6-6-|


  S S S S S S S S S S S S S S S S    S S E  S S E  S S E   
----4---4---4---4---4---4---------|-----------------------|
--x-6-x-7-x-7-x-7-x-5-x-6-x-------|-----------------------|
--x---x---x---x---x---x---x-------|-----------------------|
----------------------------------|-----------------------|
----------------------------------|---------4-4-4--4-4-4--|
----------------------------6-6-6-|--2-2-2----------------|


  S S S S S S S S S S S S S S S S    S S S S S S S S S S S S S S S S  
----4---4---4---4---4---4---------|----4---4---4---4---4---4---------|
--x-7-x-7-x-7-x-7-x-6-x-7-x-------|--x-6-x-7-x-7-x-7-x-6-x-5-x-------|
--x---x---x---x---x---x---x-------|--x---x---x---x---x---x---x-------|
----------------------------------|----------------------------------|
----------------------------------|----------------------------------|
----------------------------6-6-6-|----------------------------6-6-6-|


  S S S S S S S S S S S S S S S S    E  E  H           H        S S S S  
----4---4---4---4---4---4---------|-----------------|-------------------|
--x-6-x-7-x-7-x-7-x-5-x-6-x-------|-----------------|-------------------|
--x---x---x---x---x---x---x-------|-----------------|-------------------|
----------------------------------|-----------------|-----------x-x-x---|
----------------------------------|-----------------|-----------x-x-x---|
----------------------------6-6-2-|--L--0-----------|-----------x-x-x-2-|


  E  E  H           Q.     S S S S S S    E  E  H         
-----------------|---------------------|-----------------|
-----------------|---------------------|-----------------|
-----------------|---------------------|-----------------|
-----------------|---------x-x-x-x-x---|-----------------|
-----------------|---------x-x-x-x-x---|-----------------|
--L--0-----------|---------x-x-x-x-x-2-|--L--0-----------|


                                  TP     \2    -/2         
  Q    S S S S S S  S  S    E  E  Q.     E     S   Q.      
-------------------------|------------------|-------------|
-------------------------|------------------|-------------|
-------------------------|------------------|-------------|
-------x-x-x-x-x-x-------|------------------|-------------|
-------x-x-x-x-x-x-(0)---|--------4------L--|--L---L------|
-------x-x-x-x-x-x--0--2-|--L--0------------|-------------|


  E  E  E  E  E  E  E  E     E  E  E  E  E  E  E  E   
--------------------------|--------------------------|
--2--2--2-----3--3--3-----|--------------------------|
--6--6--6-----6--6--6-----|--7--7--7-----7--7--7-----|
--------------------------|--4--4--4-----4--4--4-----|
--------------------------|--4--4--4-----4--4--4-----|
--------------------------|--------------------------|


  E  E  E  E  E  E  E  E     Q    Q    E  E  E  E     E  E  E  E  E  E  E  E   
-----------------------0--|------------------------|--------------------------|
-----------------------0--|--0---------------------|--------------------------|
--6--6--6-----6--6--6--0--|--0----7----6--6--6-----|--7--7--7-----7--7--7-----|
--4--4--4-----4--4--4-----|--0----4----4--4--4-----|--4--4--4-----4--4--4-----|
--4--4--4-----4--4--4-----|--0----4----4--4--4-----|--4--4--4-----4--4--4-----|
--------------------------|------------------------|--------------------------|


  E  E  E  E  E  E  E  E     Q    Q    E  E  E  E     E  E  E  E  E  E  E  E   
-----------------------0--|------------------------|--------------------------|
-----------------------0--|--0---------------------|--------------------------|
--6--6--6-----6--6--6--0--|--0----7----6--6--6-----|--7--7--7-----7--7--7-----|
--4--4--4-----4--4--4-----|--0----4----4--4--4-----|--4--4--4-----4--4--4-----|
--4--4--4-----4--4--4-----|--0----4----4--4--4-----|--4--4--4-----4--4--4-----|
--------------------------|------------------------|--------------------------|


  E  E  E  E  E  E  E  E     Q    Q    E  E  E  E     E  E  E  E  E  E  E  E   
-----------------------0--|------------------------|--------------------------|
-----------------------0--|--0---------------------|--------------------------|
--6--6--6-----6--6--6--0--|--0----7----6--6--6-----|--7--7--7-----7--7--7-----|
--4--4--4-----4--4--4-----|--0----4----4--4--4-----|--4--4--4-----4--4--4-----|
--4--4--4-----4--4--4-----|--0----4----4--4--4-----|--4--4--4-----4--4--4-----|
--------------------------|------------------------|--------------------------|


  E  E  E  E  E  E  E  E     Q    Q    E  E  E  E     E  E  Q    E  E  Q     
--------------------------|--0---------------------|------------------------|
-----------------------0--|--0---------------------|------------------------|
--6--6--6-----6--6--6--0--|--0----7----6--6--6-----|--7--7--7----7--7--7----|
--4--4--4-----4--4--4--0--|-------4----4--4--4-----|--4--4--4----4--4--4----|
--4--4--4-----4--4--4--0--|-------4----4--4--4-----|--4--4--4----4--4--4----|
--------------------------|------------------------|------------------------|


  Q     Q      H           W                   W                 
------------------------|-------------------|-------------------|
------------------------|-------------------|-------------------|
--L----(7)S-------------|-------------------|-------------------|
--L----(4)--------------|-------------------|-------------------|
--L----(4)S-------------|-------------------|-------------------|
------------------------|-------------------|-------------------|


  W                   H         S   S   S   S   
-------------------|---------------------------|
-------------------|---------------------------|
-------------------|---------------------------|
-------------------|---------------------------|
-------------------|-----------(0)-(0)-(0)-(0)-|
-------------------|------------3---3---3---2--|


  S S  S  S  S  S  S  S  S  S  S  S  S   S   S   S   
----------------------------------------------------|
----------------------------------------------------|
----------------------------------------------------|
----------------------------------------------------|
--L---(0)---(0)---(0)---(0)---(0)---(0)-(0)-(0)-(0)-|
--L----2-----2-----2-----3-----3-----3---3---3---2--|


  S S  S  S  S  S  S  S  S  S  S  S  S   S   S   S   
----------------------------------------------------|
----------------------------------------------------|
----------------------------------------------------|
----------------------------------------------------|
--L---(0)---(0)---(0)---(0)---(0)---(0)-(0)-(0)-(0)-|
--L----2-----2-----2-----3-----3-----3---3---3---2--|


  S S  S  S  S  S  S  S  S  S  S  S  S   S   S   S   
----------------------------------------------------|
----------------------------------------------------|
----------------------------------------------------|
----------------------------------------------------|
--L---(0)---(0)---(0)---(0)---(0)---(0)-(0)-(0)-(0)-|
--L----2-----2-----2-----3-----3-----3---3---3---2--|


  S S  S  S  S  S  S  S  S   S   S   S   S   S   S   S   
--------------------------------------------------------|
--------------------------------------------------------|
--------------------------------------------------------|
--------------------------------------------------------|
--L---(0)---(0)---(0)---(0)-(0)-(0)-(0)-(0)-(0)-(0)-(0)-|
--L----2-----2-----2-----3---3---3---0---3---3---0---2--|


  S  S   S  S  S   S   S  S  S  S  S  S  S   S   S   S   
--------------------------------------------------------|
--------------------------------------------------------|
--------------------------------------------------------|
--------------------------------------------------------|
--L-(0)-(0)---(0)-(0)-(0)---(0)---(0)---(0)-(0)-(0)-(0)-|
--L--0---2-----2---2---2-----3-----3-----3---3---0---2--|


  S  S   S  S  S   S   S  S  S  S  S  S  S   S   S   S   
--------------------------------------------------------|
--------------------------------------------------------|
--------------------------------------------------------|
--------------------------------------------------------|
--L-(0)-(0)---(0)-(0)-(0)---(0)---(0)---(0)-(0)-(0)-(0)-|
--L--0---2-----2---2---2-----3-----3-----3---3---0---2--|


  S  S   S  S  S   S   S  S  S  S  S  S  S   S   S   S   
--------------------------------------------------------|
--------------------------------------------------------|
--------------------------------------------------------|
--------------------------------------------------------|
--L-(0)-(0)---(0)-(0)-(0)---(0)---(0)---(0)-(0)-(0)-(0)-|
--L--0---2-----2---2---2-----3-----3-----3---3---0---2--|


  S  S   S  S  S   S   S  S  S  S  S  E.   S   S     W                 
--------------------------------------------------|-------------------|
--------------------------------------------------|-------------------|
--------------------------------------------------|-------------------|
--------------------------------------------------|-------------------|
--L-(0)-(0)---(0)-(0)-(0)---(0)---(0)-----(0)-(0)-|-------------------|
--L--0---2-----2---2---2-----3-----3-------3---2--|-------------------|


  H.           E.   S   
-----------------------|
-----------------------|
-----------------------|
-----------------------|
-------------------(0)-|
--------------------3--|


  S  S   S  S  S   S   S  S  S  S  S  S  S   S   S   S   
--------------------------------------------------------|
--------------------------------------------------------|
----------------------------------------------------(0)-|
----------------------------------------(0)--L------(0)-|
--L-(0)-(0)---(0)-(0)-(0)---(0)---(0)---(0)-(0)-(0)-(0)-|
--L--0---2-----2---2---2-----3-----3-----3---3---0---2--|


  S  S   S  S  S   S   S  S  S  S  S  E.   S   S   
--------------------------------------------------|
--------------------------------------------------|
--L-----------------------------------------------|
--L-----------------------------------------------|
--L-(0)-(0)---(0)-(0)-(0)---(0)---(0)-----(0)-(0)-|
--L--0---2-----2---2---2-----3-----3-------3---2--|


  S S  S  S  S  S  S  S  S   S   S   S   S   S   S   S   
--------------------------------------------------------|
--------------------------------------------------------|
--------------------------------------------------------|
--------------------------------------------------------|
--L---(0)---(0)---(0)---(0)-(0)-(0)-(0)-(0)-(0)-(0)-(0)-|
--L-0--2-----2-----2-----3---3---3---0---3---3---0---2--|


  S S  S  S  S  S  S  S  S   S   S   S   S   S   S   S   
--------------------------------------------------------|
--------------------------------------------------------|
--------------------------------------------------------|
--------------------------------------------------------|
--L---(0)---(0)---(0)---(0)-(0)-(0)-(0)-(0)-(0)-(0)-(0)-|
--L-0--2-----2-----2-----3---3---3---0---3---3---0---2--|


  Q     Q      H           H        T T T T T T T T T T T T T T T T  
------------------------|-------------------------------------------|
------------------------|-------------------------------------------|
------------------------|---------------------------x-x-x-x-x-x-x-x-|
------------------------|-----------x-x-x-x-x-x-x-x-x-x-x-x-x-x-x-x-|
------------------------|-----------x-x-x-x-x-x-x-x-x-x-x-x-x-x-x-x-|
--L----(2)\-------------|-----------x-x-x-x-x-x-x-x-x-x-x-x-x-x-x-x-|


  S S S S S S S S S S S S S S S S    S S S S S S S S S S S S S S S S  
----4---4---4---4---4---4---------|----4---4---4---4---4---4---------|
--x-7-x-7-x-7-x-7-x-6-x-7-x-------|--x-6-x-7-x-7-x-7-x-6-x-5-x-------|
--x---x---x---x---x---x---x-------|--x---x---x---x---x---x---x-------|
----------------------------------|----------------------------------|
----------------------------------|----------------------------------|
----------------------------6-6-6-|----------------------------6-6-6-|


  S S S S S S S S S S S S S S S S    S S E  S S E  S S E   
----4---4---4---4---4---4---------|-----------------------|
--x-6-x-7-x-7-x-7-x-5-x-6-x-------|-----------------------|
--x---x---x---x---x---x---x-------|-----------------------|
----------------------------------|-----------------------|
----------------------------------|---------4-4-4--4-4-4--|
----------------------------6-6-6-|--2-2-2----------------|


  S S S S S S S S S S S S S S S S    S S S S S S S S S S S S S S S S  
----4---4---4---4---4---4---------|----4---4---4---4---4---4---------|
--x-7-x-7-x-7-x-7-x-6-x-7-x-------|--x-6-x-7-x-7-x-7-x-6-x-5-x-------|
--x---x---x---x---x---x---x-------|--x---x---x---x---x---x---x-------|
----------------------------------|----------------------------------|
----------------------------------|----------------------------------|
----------------------------6-6-6-|----------------------------6-6-6-|


  S S S S S S S S S S S S S S S S    S S E  S S E  S S E   
----4---4---4---4---4---4---------|-----------------------|
--x-6-x-7-x-7-x-7-x-5-x-6-x-------|-----------------------|
--x---x---x---x---x---x---x-------|-----------------------|
----------------------------------|-----------------------|
----------------------------------|---------4-4-4--4-4-4--|
----------------------------6-6-6-|--2-2-2----------------|


  PM PM PM     PM PM PM PM PM     PM PM      
  S  S  S   E  S  S  S  S  S   E  S  S   E   
--------------------------------------------|
------------8------------------8---------8--|
-----------11-----------------11--------11--|
--9--9--9------9--9--9--9--9------9--9------|
--9--9--9------9--9--9--9--9------9--9------|
--------------------------------------------|


  PM PM PM    PM    PM PM PM PM     PM PM      
  S  S  S   S S   S S  S  S  S   E  S  S   E   
----------------------------------------------|
------------8-----8--------------8---------8--|
-----------11----11-------------11--------11--|
--9--9--9-----9-----9--9--9--9------9--9------|
--9--9--9-----9-----9--9--9--9------9--9------|
----------------------------------------------|


  PM PM PM    PM    PM PM PM PM     PM PM      
  S  S  S   S S   S S  S  S  S   E  S  S   E   
----------------------------------------------|
------------8-----8--------------8---------8--|
-----------11----11-------------11--------11--|
--9--9--9-----9-----9--9--9--9------9--9------|
--9--9--9-----9-----9--9--9--9------9--9------|
----------------------------------------------|


  PM PM PM    PM    PM PM PM PM                      
  S  S  S   S S   S S  S  S  S   E   T  T  T  S.E.   
-------------------------------------8--8--8--8-----|
------------8-----8--------------8--12-12-12-12-----|
-----------11----11-------------11------------------|
--9--9--9-----9-----9--9--9--9----------------------|
--9--9--9-----9-----9--9--9--9----------------------|
----------------------------------------------------|


  play random stuff and feedback                                               
  S                                                                            
---------------------------------|----|----|----|----|----|----|----|----|----|
---------------------------------|----|----|----|----|----|----|----|----|----|
---------------------------------|----|----|----|----|----|----|----|----|----|
---------------------------------|----|----|----|----|----|----|----|----|----|
---------------------------------|----|----|----|----|----|----|----|----|----|
---------------------------------|----|----|----|----|----|----|----|----|----|


----|----|----|----|----|----|----|----|----|----|----|
----|----|----|----|----|----|----|----|----|----|----|
----|----|----|----|----|----|----|----|----|----|----|
----|----|----|----|----|----|----|----|----|----|----|
----|----|----|----|----|----|----|----|----|----|----|
----|----|----|----|----|----|----|----|----|----|----|


  E  E  E  E  E  E  E  E     E  E  E  E  E  E  E  E     Q    Q    E  E  E  E   
--------------------------|-----------------------0--|------------------------|
--------------------------|-----------------------0--|--0---------------------|
--7--7--7-----7--7--7-----|--6--6--6-----6--6--6--0--|--0----7----6--6--6-----|
--4--4--4-----4--4--4-----|--4--4--4-----4--4--4-----|--0----4----4--4--4-----|
--4--4--4-----4--4--4-----|--4--4--4-----4--4--4-----|--0----4----4--4--4-----|
--------------------------|--------------------------|------------------------|


  E  E  E  E  E  E  E  E     E  E  E  E  E  E  E  E     Q    Q    E  E  E  E   
--------------------------|-----------------------0--|------------------------|
--------------------------|-----------------------0--|--0---------------------|
--7--7--7-----7--7--7-----|--6--6--6-----6--6--6--0--|--0----7----6--6--6-----|
--4--4--4-----4--4--4-----|--4--4--4-----4--4--4-----|--0----4----4--4--4-----|
--4--4--4-----4--4--4-----|--4--4--4-----4--4--4-----|--0----4----4--4--4-----|
--------------------------|--------------------------|------------------------|


  E  E  E  E  E  E  E  E     E  E  E  E  E  E  E  E     Q    Q    E  E  E  E   
--------------------------|-----------------------0--|------------------------|
--------------------------|-----------------------0--|--0---------------------|
--7--7--7-----7--7--7-----|--6--6--6-----6--6--6--0--|--0----7----6--6--6-----|
--4--4--4-----4--4--4-----|--4--4--4-----4--4--4-----|--0----4----4--4--4-----|
--4--4--4-----4--4--4-----|--4--4--4-----4--4--4-----|--0----4----4--4--4-----|
--------------------------|--------------------------|------------------------|


  E  E  E  E  E  E  E  E     E  E  E  E  E  E  E  E     Q    Q    E  E  E  E   
--------------------------|--------------------------|--0---------------------|
--------------------------|-----------------------0--|--0---------------------|
--7--7--7-----7--7--7-----|--6--6--6-----6--6--6--0--|--0----7----6--6--6-----|
--4--4--4-----4--4--4-----|--4--4--4-----4--4--4--0--|-------4----4--4--4-----|
--4--4--4-----4--4--4-----|--4--4--4-----4--4--4--0--|-------4----4--4--4-----|
--------------------------|--------------------------|------------------------|


  E  E  E  E  E  E  E  E     E  E  E  E  E  E  E  E   
--------------------------|--------------------------|
--------------------------|--------------------------|
--7--7--7-----7--7--7-----|--7--7--7-----7--7--7-----|
--4--4--4-----4--4--4-----|--4--4--4-----4--4--4-----|
--4--4--4-----4--4--4-----|--4--4--4-----4--4--4-----|
--------------------------|--------------------------|


                                                         W                 
  E  E  E  E  E  E  E  E     E  E  E  E  E  E  E  E      W                 
--------------------------|--------------------------|--30----------------|
--------------------------|--------------------------|--------------------|
--7--7--7-----7--7--7-----|--7--7--7-----7--7--7-----|--------------------|
--4--4--4-----4--4--4-----|--4--4--4-----4--4--4-----|--------------------|
--4--4--4-----4--4--4-----|--4--4--4-----4--4--4-----|--------------------|
--------------------------|--------------------------|--------------------|


  W                   W                   H.           Q     
--L----------------|--L----------------|--L-----------------|
-------------------|-------------------|--------------------|
-------------------|-------------------|--------------------|
-------------------|-------------------|--------------------|
-------------------|-------------------|--------------------|
-------------------|-------------------|--------------------|


  E  E  E  E  E  E  E  E     E  E  E  E  E  E  E  E   
--------------------------|--------------------------|
--------------------------|--------------------------|
--6--6--6-----6--6--6-----|--6--6--6-----6--6--6-----|
--4--4--4-----4--4--4-----|--4--4--4-----4--4--4-----|
--4--4--4-----4--4--4-----|--4--4--4-----4--4--4-----|
--------------------------|--------------------------|


  E  E  E  E  E  E  E  E     E  E  E  E  E  E  E  E    
--------------------------|--------------------------||
--------------------------|--------------------------||
--6--6--6-----6--6--6-----|--6--6--6-----6--6--6-----||
--4--4--4-----4--4--4-----|--4--4--4-----4--4--4-----||
--4--4--4-----4--4--4-----|--4--4--4-----4--4--4-----||
--------------------------|--------------------------||




Duration Legend
---------------
W - whole
H - half
Q - quarter
E - 8th
S - 16th
T - 32nd
X - 64th
. - note dotted
|-n-|  - n-tuplets


Tablature Legend
----------------
L - tied note
x - dead note
g - grace note
(n) - ghost note
> - accentuded note
NH - natural harmonic
AH - artificial harmonic
TH - tapped harmonic
SH - semi harmonic
PH - pitch harmonic
h - hammer on
p - pull off
b - bend
br - bendRelease
pb - preBend
pbr - preBendRelease
brb - bendReleaseBend
\n/ - tremolo bar dip
\n - tremolo bar dive
-/n - tremolo bar Release up
/n\ - tremolo bar inverted dip
/n - tremolo bar return
-\n - tremolo bar Release down
S - shift slide
s - legato slide
/ -  slide into from below or out of upwards
\ -  slide into from above or out of downwards
~ - vibrato
W - wide vibrato
tr - trill
TP - tremolo picking
T - tapping
S - slap
P - pop
< - fade in
^ - brush up
v - brush down

            
            
Suggest correction
Creating personal tab
Creating personal tab
You can edit any tab online and save it as your Personal.

You can edit, replace or remove any tab part or add personal notes – all changes will be seen only by you.

Personal tabs can be accessed anytime from any device, even offline.
Learn more »
Give kudos to tab author, rate the tab!
1 2 3 4 5
comments
print report bad tab
guest
You may want to rate the tab now too:
select rating
Wanna post a correction for this tab? Suggest correction