Oops, an error
Loading. Please wait.

Love Rhymes With Hideous Car Wreck tab

version 2
version 2

Whole song

Interactive

1,800 views 3 this week
no commentswrite comment
1 2 3 4 5
x 3
add to favorites
×
Save as Personal and add changes to this tab that will be seen only by you. Learn more ›
×
You can save this tab as Personal to edit and correct it or add notes. All changes will be seen only by you. Learn more »
launch autoscroll
font size
0
reset
how to read this tab
guitar tuner
edit
Autoscroll
slow
fast
+/-
esc
set tempo
stop
----------------------------------------------------------------------------
          Love Rhymes With Hideous Car Wreck - The Blood Brothers
----------------------------------------------------------------------------


Guitar I - (E A D G B E) 
Guitar II - (E A D G B E)




 Intro:

  Guitar I:

|-------------------|--------------|---------------|
|-------------------|--------------|---------------|
|-------------------|--------------|---------------|
|-------------------|--------------|---------------|
|-------------------|--------------|---------------|
|-11----11-11----11-|-10\----------|-3----3-3----3-|



|---------------|--------------------|-------|
|---------------|--------------------|-------|
|---------------|--------------------|-------|
|---------------|--------------------|-------|
|---------------|--------------------|-------|
|-3----3-3----3-|-/11----11-11----11-|-10----|


 Verse:

|-------------------------|-------------------------|
|-------------------------|-------------------------|
|-------------------------|-------------------------|
|-------------------------|-------------------------|
|----------------------10-|-10-------------------10-|
|-11-11-11-11-11-10-11----|----10-10-10-10-10-10----|


   
|-------------------------|--------------------------|
|-------------------------|--------------------------|
|-------------------------|--------------------------|
|-------------------------|--------------------------|
|----------------------10-|-10-10-10-10-10-10-10-----|
|-11-11-11-11-11-10-11----|----------------------10--|


  
|-------------------------|-------------------------|
|-------------------------|-------------------------|
|-------------------------|-------------------------|
|-------------------------|-------------------------|
|----------------------10-|-10-------------------10-|
|-11-11-11-11-11-10-11----|----10-10-10-10-10-10----|


   
|-------------------------|----------------|
|-------------------------|----------------|
|-------------------------|----------------|
|-------------------------|----------------|
|----------------------10-|-(10)-10-10-----|
|-11-11-11-11-11-10-11----|----------------|


 
|-------------------------|-------------------------|
|-------------------------|-------------------------|
|-------------------------|-------------------------|
|-------------------------|-------------------------|
|----------------------10-|-10-------------------10-|
|-11-11-11-11-11-10-11----|----10-10-10-10-10-10----|


   
|-------------------------|--------------------------|
|-------------------------|--------------------------|
|-------------------------|--------------------------|
|-------------------------|--------------------------|
|----------------------10-|-10-10-10-10-10-10-10-10--|
|-11-11-11-11-11-10-11----|--------------------------|


    
||--------------------------|---------------------------|
||o-------------------------|---------------------------|
||--------------------------|---------------------------|
||--------------------------|---------------------------|
||o----------------------10-|-(10)-------------------10-|
||--11-11-11-11-11-10-11----|------10-10-10-10-10-10----|


                                                       x3
|-------------------------|--------------------------||
|-------------------------|-------------------------o||
|-------------------------|--------------------------||
|-------------------------|--------------------------||
|----------------------10-|-10-10-10-10-10-10-10-10-o||
|-11-11-11-11-11-10-11----|--------------------------||


 Chorus:

|-------------------|-------------------|---------------|----------|------|
|-------------------|-------------------|---------------|----------|------|
|-------------------|-------------------|---------------|----------|------|
|-------------------|-------------------|---------------|----------|------|
|-------------------|-------------------|---------------|----------|------|
|-11----11-11----11-|-10----10-10----10-|-8----8-8----8-|-6--------|------|


  
|-------------------|-------------------|
|-------------------|-------------------|
|-------------------|-------------------|
|-------------------|-------------------|
|-------------------|-------------------|
|-11----11-11----11-|-10----10-10----10-|


   
|---------------|----------|--------------|
|---------------|----------|--------------|
|---------------|----------|--------------|
|---------------|----------|--------------|
|---------------|----------|--------------|
|-8----8-8-10-8-|-6--------|------6-8-10--|


 Verse:
 
|-------------------------|---------------------------|
|-------------------------|---------------------------|
|-------------------------|---------------------------|
|-------------------------|---------------------------|
|----------------------10-|-(10)-------------------10-|
|-11-11-11-11-11-10-11----|------10-10-10-10-10-10----|


   
|-------------------------|----------------------------|
|-------------------------|----------------------------|
|-------------------------|----------------------------|
|-------------------------|----------------------------|
|----------------------10-|-(10)-10-10-10-10-10-10-10--|
|-11-11-11-11-11-10-11----|----------------------------|


  
|-------------|-------------|-------------|------------------|
|-------------|-------------|-------------|------------------|
|-------------|-------------|-------------|------------------|
|-------------|-------------|-------------|------------------|
|-10----10----|-10----10----|-10----10----|-10----10---------|
|-------------|-------------|-------------|-------------10---|


    
||--------------------------|---------------------------|
||o-------------------------|---------------------------|
||--------------------------|---------------------------|
||--------------------------|---------------------------|
||o----------------------10-|-(10)-------------------10-|
||--11-11-11-11-11-10-11----|------10-10-10-10-10-10----|


   
|-------------------------|--------------------------||
|-------------------------|-------------------------o||
|-------------------------|--------------------------||
|-------------------------|--------------------------||
|----------------------10-|-10-10-10-10-10-10-10-10-o||
|-11-11-11-11-11-10-11----|--------------------------||


   Bridge:
   
||----------------|----------------||---------------|-6----|
||o---------------|---------------o||---------------|-6----|
||--3------2------|-3------3-------||-3------5------|-7----|
||--5------3------|-5------5-------||-5------7------|-8----|
||o-5------3------|-5------5------o||-5------7------|-8----|
||--3------1------|-3------3-------||-3------5------|-6----|



    Guitar II:
 
||----------------|----------------||---------------|-6----|
||o---------------|---------------o||---------------|-6----|
||--3------2------|-3------3-------||-3------5------|-7----|
||--5------3------|-5------5-------||-5------7------|-8----|
||o-5------3------|-5------5------o||-5------7------|-8----|
||--3------1------|-3------3-------||-3------5------|-6----|



|-------------|-------------|-------------|--------------|
|-------------|-------------|-------------|--------------|
|-------------|-------------|-------------|--------------|
|-5-----------|-7-----------|-------------|--------------|
|-------------|-------------|-------------|--------------|
|---3-0-2-2p0-|---5-3-5-5p0-|-3-3p0-3-5-3-|-2-2p0-2/-----|


  
|-------------|-------------|-------------|--------------|
|-------------|-------------|-------------|--------------|
|-------------|-------------|-------------|--------------|
|-5-----------|-7-----------|-------------|--------------|
|-------------|-------------|-------------|--------------|
|---3-0-2-2-x-|---5-3-5-5-x-|-3-3p0-3-5-3-|-2-2p0-2/-----|



|-------------|-------------|-------------|-------------|
|-------------|-------------|-------------|-------------|
|-------------|-------------|-------------|-------------|
|-5-----------|-7-----------|-------------|-------------|
|-------------|-------------|-------------|-------------|
|---3-0-2-2-x-|---5-3-5-----|-3-3p0-3-5-3-|-2-2p0-2-3-5-|



|-------------|-----------------|-------------|-------------|--------|
|-------------|-----------------|-------------|-------------|--------|
|-------------|-----------------|-------------|-------------|--------|
|-5-----------|-7---------------|-------------|-------------|--------|
|-------------|-----------------|-------------|-------------|--------|
|---3-0-2-2-x-|---5-3-5--(5)\---|-3-3p0-3-5-3-|-2-2p0-2-3-5-|--------|


   Chorus:
   
    Guitar I:
  
||-------------------|-------------|---------------|------------|-------||
||o------------------|-------------|---------------|------------|------o||
||-------------------|-------------|---------------|------------|-------||
||-------------------|-------------|---------------|------------|-------||
||o------------------|-------------|---------------|------------|------o||
||--11-------(11)-10-|-(10)--------|-8-------(8)-6-|-(6)--------|-------||


 
|-------------------------|-------------------------|
|-------------------------|-------------------------|
|-------------------------|-------------------------|
|-------------------------|-------------------------|
|-------------------------|-------------------------|
|-11-11-11-11-11-11-11-10-|-10-10-10-10-10-10-10-10-|



|-----------------|------------------|
|-----------------|------------------|
|-----------------|------------------|
|-----------------|------------------|
|-----------------|------------------|
|-8-8-8-8-8-8-8-6-|-6-6-6-6-6-6-6-6--|


  
|-----------------|-----------------|
|-----------------|-----------------|
|-----------------|-----------------|
|-----------------|-----------------|
|-----------------|-----------------|
|-5-5-5-5-5-5-5-5-|-5-5-5-5-5-5-5-5-|  End. Thank you for viewing my tab!





| /  slide up
| \  slide down
| h  hammer-on
| p  pull-off
| ~  vibrato
| +  harmonic
| x  Mute note
============================================================================

            
            
Suggest correction
Creating personal tab
Creating personal tab
You can edit any tab online and save it as your Personal.

You can edit, replace or remove any tab part or add personal notes – all changes will be seen only by you.

Personal tabs can be accessed anytime from any device, even offline.
Learn more »
Give kudos to tab author, rate the tab!
1 2 3 4 5
comments
print report bad tab
guest
You may want to rate the tab now too:
select rating
Wanna post a correction for this tab? Suggest correction