Oops, an error
Loading. Please wait.

Peacock Skeleton With Crooked Feathers tab

version 1
version 1

Whole song

Interactive

2,222 views 1 this week
no commentswrite comment
1 2 3 4 5
1 last vote to show rating
add to favorites
×
Save as Personal and add changes to this tab that will be seen only by you. Learn more ›
×
You can save this tab as Personal to edit and correct it or add notes. All changes will be seen only by you. Learn more »
launch autoscroll
font size
0
reset
how to read this tab
guitar tuner
edit
Autoscroll
slow
fast
+/-
esc
set tempo
stop
PEACOCK SKELETON WITH CROOKED FEATHERS
As recorded by The Blood Brothers
(From the 2004 Album CRIMES)

Transcribed by Tom Wall
        

Words and Music by The Blood Brothers

Gtr I (E A D G B E) - 'Wurlitzer'
Gtr II (E A D G B E) - 'Clean Guitar'
Gtr III (E A D G B E) - 'Distortion Guitar 1'
Gtr IV (E A D G B E) - 'Distortion Guitar 2'

   Intro
      Q=135
      Gm
   4/4
      Gtr I
    E e E  s  E.  E  E  E    E e E  s  E.  E  E  E
||-------------------------|------------------------|
||o---3-3-(3)-3--(3)-3-(3)-|---3-3-(3)-3--(3)-3-(3)-|
||----3-3-(3)-3--(3)-3-(3)-|---3-3-(3)-3--(3)-3-(3)-|
||----5-5-(5)-5--(5)-4-(4)-|---5-5-(5)-5--(5)-4-(4)-|
||o--------5---------------|--------5---------------|
||----------------3-----2--|---------------3-----2--|


  E e E  s  E.  E  E  E    e e E  s  E.  E  E  E
|------------------------|--------------------------||
|---3-3-(3)-3--(3)-3-(3)-|-3-3-3-(3)-3--(3)-3-(3)--o||
|---3-3-(3)-3--(3)-3-(3)-|-3-3-3-(3)-3--(3)-3-(3)---||
|---5-5-(5)-5--(5)-4-(4)-|-5-5-5-(5)-5--(5)-4-(4)---||
|--------5---------------|--------5----------------o||
|---------------3-----2--|---------------3-----2----||


    Cm        Cm/A
               |-------3-------|
  E E +T   a   Q   a   Q   a   Q   a   e..
|------------------------------------------|
|---4-(4)------4-------4-------4-------4---|
|---5-(5)------5-------5-------5-------5---|
|---------(5)-(7)-(5)-(7)-(5)-(7)-(5)-(7)--|
|------------------------------------------|
|------------------------------------------|


    Cm        Cm/A
               |-------3-------|
  E E +T   a   Q   a   Q   a   Q   a   e..
|------------------------------------------|
|---4-(4)------4-------4-------4-------4---|
|---5-(5)------5-------5-------5-------5---|
|---------(5)-(7)-(5)-(7)-(5)-(7)-(5)-(7)--|
|------------------------------------------|
|------------------------------------------|


   Verse
      Gm
    E e E  s  E.  E  E  E    E e E  s  E.  E  E  E
||-------------------------|------------------------|
||o---3-3-(3)-3--(3)-3-(3)-|---3-3-(3)-3--(3)-3-(3)-|
||----3-3-(3)-3--(3)-3-(3)-|---3-3-(3)-3--(3)-3-(3)-|
||----5-5-(5)-5--(5)-4-(4)-|---5-5-(5)-5--(5)-4-(4)-|
||o--------5---------------|--------5---------------|
||----------------3-----2--|---------------3-----2--|


  E e E  s  E.  E  E  E    e e E  s  E.  E  E  E
|------------------------|-------------------------||
|---3-3-(3)-3--(3)-3-(3)-|-3-3-3-(3)-3--(3)-3-(3)-o||
|---3-3-(3)-3--(3)-3-(3)-|-3-3-3-(3)-3--(3)-3-(3)--||
|---5-5-(5)-5--(5)-4-(4)-|-5-5-5-(5)-5--(5)-4-(4)--||
|--------5---------------|--------5---------------o||
|---------------3-----2--|---------------3-----2---||


    Cm        Cm/A
               |-------3-------|
  E E +T   a   Q   a   Q   a   Q   a   e..
|------------------------------------------|
|---4-(4)------4-------4-------4-------4---|
|---5-(5)------5-------5-------5-------5---|
|---------(5)-(7)-(5)-(7)-(5)-(7)-(5)-(7)--|
|------------------------------------------|
|------------------------------------------|


    Cm        Cm/A
               |-------3-------|
  E E +T   a   Q   a   Q   a   Q   a   e..
|------------------------------------------|
|---4-(4)------4-------4-------4-------4---|
|---5-(5)------5-------5-------5-------5---|
|---------(5)-(7)-(5)-(7)-(5)-(7)-(5)-(7)--|
|------------------------------------------|
|------------------------------------------|


      Gm
   4/4
    E e E  s  E.  E  E  E    E e E  s  E.  E  E  E
||-------------------------|------------------------|
||o---3-3-(3)-3--(3)-3-(3)-|---3-3-(3)-3--(3)-3-(3)-|
||----3-3-(3)-3--(3)-3-(3)-|---3-3-(3)-3--(3)-3-(3)-|
||----5-5-(5)-5--(5)-4-(4)-|---5-5-(5)-5--(5)-4-(4)-|
||o--------5---------------|--------5---------------|
||----------------3-----2--|---------------3-----2--|


  E e E  s  E.  E  E  E    e e E  s  E.  E  E  E
|------------------------|--------------------------||
|---3-3-(3)-3--(3)-3-(3)-|-3-3-3-(3)-3--(3)-3-(3)--o||
|---3-3-(3)-3--(3)-3-(3)-|-3-3-3-(3)-3--(3)-3-(3)---||
|---5-5-(5)-5--(5)-4-(4)-|-5-5-5-(5)-5--(5)-4-(4)---||
|--------5---------------|--------5----------------o||
|---------------3-----2--|---------------3-----2----||


    Cm        Cm/A
               |-------3-------|
  E E +T   a   Q   a   Q   a   Q   a   e..
|------------------------------------------|
|---4-(4)------4-------4-------4-------4---|
|---5-(5)------5-------5-------5-------5---|
|---------(5)-(7)-(5)-(7)-(5)-(7)-(5)-(7)--|
|------------------------------------------|
|------------------------------------------|


    Cm        Cm/A
               |-------3-------|
  E E +T   a   Q   a   Q   a   Q   a   e..
|------------------------------------------|
|---4-(4)------4-------4-------4-------4---|
|---5-(5)------5-------5-------5-------5---|
|---------(5)-(7)-(5)-(7)-(5)-(7)-(5)-(7)--|
|------------------------------------------|
|------------------------------------------|


      Gm
   4/4
    E e E  s  E.  E  E  E    E e E  s  E.  E  E  E
||-------------------------|------------------------|
||o---3-3-(3)-3--(3)-3-(3)-|---3-3-(3)-3--(3)-3-(3)-|
||----3-3-(3)-3--(3)-3-(3)-|---3-3-(3)-3--(3)-3-(3)-|
||----5-5-(5)-5--(5)-4-(4)-|---5-5-(5)-5--(5)-4-(4)-|
||o--------5---------------|--------5---------------|
||----------------3-----2--|---------------3-----2--|


  E e E  s  E.  E  E  E    e e E  s  E.  E  E  E
|------------------------|--------------------------||
|---3-3-(3)-3--(3)-3-(3)-|-3-3-3-(3)-3--(3)-3-(3)--o||
|---3-3-(3)-3--(3)-3-(3)-|-3-3-3-(3)-3--(3)-3-(3)---||
|---5-5-(5)-5--(5)-4-(4)-|-5-5-5-(5)-5--(5)-4-(4)---||
|--------5---------------|--------5----------------o||
|---------------3-----2--|---------------3-----2----||


    Cm        Cm/A
               |-------3-------|
  E E +T   a   Q   a   Q   a   Q   a   e..
|------------------------------------------|
|---4-(4)------4-------4-------4-------4---|
|---5-(5)------5-------5-------5-------5---|
|---------(5)-(7)-(5)-(7)-(5)-(7)-(5)-(7)--|
|------------------------------------------|
|------------------------------------------|


    Cm        Cm/A
               |-------3-------|
  E E +T   a   Q   a   Q   a   Q   a   e..
|------------------------------------------|
|---4-(4)------4-------4-------4-------4---|
|---5-(5)------5-------5-------5-------5---|
|---------(5)-(7)-(5)-(7)-(5)-(7)-(5)-(7)--|
|------------------------------------------|
|------------------------------------------|


    Gm
 4/4
  E e E  s  E.  E  E  E    E e E  s  E.  E  E  E
|------------------------|------------------------|
|---3-3-(3)-3--(3)-3-(3)-|---3-3-(3)-3--(3)-3-(3)-|
|---3-3-(3)-3--(3)-3-(3)-|---3-3-(3)-3--(3)-3-(3)-|
|---5-5-(5)-5--(5)-4-(4)-|---5-5-(5)-5--(5)-4-(4)-|
|--------5---------------|--------5---------------|
|---------------3-----2--|---------------3-----2--|


  E e E  s  E.  E  E  E    e e E  s  E.  E  E  E
|------------------------|------------------------|
|---3-3-(3)-3--(3)-3-(3)-|-3-3-3-(3)-3--(3)-3-(3)-|
|---3-3-(3)-3--(3)-3-(3)-|-3-3-3-(3)-3--(3)-3-(3)-|
|---5-5-(5)-5--(5)-4-(4)-|-5-5-5-(5)-5--(5)-4-(4)-|
|--------5---------------|--------5---------------|
|---------------3-----2--|---------------3-----2--|


  E   e E  s  E.      E  E  E    E e E  s  E.  E  E  E
|------------------------------|------------------------|
|-----3-3-(3)-3------(3)-3-(3)-|---3-3-(3)-3--(3)-3-(3)-|
|-----3-3-(3)-3------(3)-3-(3)-|---3-3-(3)-3--(3)-3-(3)-|
|-----5-5-(5)-5------(5)-4-(4)-|---5-5-(5)-5--(5)-4-(4)-|
|----------5-------------------|--------5---------------|
|---------------------3-----2--|---------------3-----2--|
|
| Gtr III
| Q..         S  +H              W
|-6-----------5--(5)-----------|------------------------|
|------------------------------|-8----------------------|
|------------------------------|------------------------|
|------------------------------|------------------------|
|------------------------------|------------------------|
|------------------------------|------------------------|


  E  e E  s  E.  E  E  E    e e E  s  E.  E  E  E
|-------------------------|------------------------|
|----3-3-(3)-3--(3)-3-(3)-|-3-3-3-(3)-3--(3)-3-(3)-|
|----3-3-(3)-3--(3)-3-(3)-|-3-3-3-(3)-3--(3)-3-(3)-|
|----5-5-(5)-5--(5)-4-(4)-|-5-5-5-(5)-5--(5)-4-(4)-|
|---------5---------------|--------5---------------|
|----------------3-----2--|---------------3-----2--|
|
| H.                Q       W
|-------------------------|------------------------|
|-------------------7-----|-8----------------------|
|-7-----------------------|------------------------|
|-------------------------|------------------------|
|-------------------------|------------------------|
|-------------------------|------------------------|


      Cm        Cm/A
                 |-------3-------|
    E E +T   a   Q   a   Q   a   Q   a   e..
||-------------------------------------------|
||o---4-(4)------4-------4-------4-------4---|
||----5-(5)------5-------5-------5-------5---|
||----------(5)-(7)-(5)-(7)-(5)-(7)-(5)-(7)--|
||o------------------------------------------|
||-------------------------------------------|


    Cm        Cm/A
               |-------3-------|
  E E +T   a   Q   a   Q   a   Q   a   e..
|-------------------------------------------||
|---4-(4)------4-------4-------4-------4---o||
|---5-(5)------5-------5-------5-------5----||
|---------(5)-(7)-(5)-(7)-(5)-(7)-(5)-(7)---||
|------------------------------------------o||
|-------------------------------------------||


  N.C.
 4/4
  Gtr II
  E. E. E E. E. E      E. E. E E. E.   E
|-6--5----6--5------|--6--5----8--6----5-|
|-------8-------8---|--------8-----------|
|-------------------|--------------------|
|-------------------|--------------------|
|-------------------|--------------------|
|-------------------|--------------------|
|
| Gtr III
|                      >
| W                    H.            Q
|-------------------|--------------------|
|-------------------|-20-----------------|
|-------------------|--------------------|
|-------------------|--------------------|
|-------------------|--------------------|
|-------------------|--------------------|


  E. E. E E. E. E      E. E. E E. E.   E
|-6--5----6--5------|-----5----5--6----5-|
|-------8-------8---|--7-----7-----------|
|-------------------|--------------------|
|-------------------|--------------------|
|-------------------|--------------------|
|-------------------|--------------------|
|
|                      >
| W                    H.            Q
|-------------------|--------------------|
|-------------------|-20-----------------|
|-------------------|--------------------|
|-------------------|--------------------|
|-------------------|--------------------|
|-------------------|--------------------|


  E. E. E E. E. E      E. E. E E. E.   E
|-6--5----6--5------|--6--5----8--6----5-|
|-------8-------8---|--------8-----------|
|-------------------|--------------------|
|-------------------|--------------------|
|-------------------|--------------------|
|-------------------|--------------------|
|
|                      >
| W                    H.            Q
|-------------------|-22-----------------|
|-------------------|--------------------|
|-------------------|--------------------|
|-------------------|--------------------|
|-------------------|--------------------|
|-------------------|--------------------|


  E. E. E E. E. E      E. E. E E. E.   E
|-6--5----6--5------|-----5----5--6----5-|
|-------8-------8---|--7-----7-----------|
|-------------------|--------------------|
|-------------------|--------------------|
|-------------------|--------------------|
|-------------------|--------------------|
|
|                      >
| W                    H.            Q
|-------------------|--------------------|
|-------------------|-20-----------------|
|-------------------|--------------------|
|-------------------|--------------------|
|-------------------|--------------------|
|-------------------|--------------------|


   Pre-Chorus
    N.C.
    Gtr I
    S  S S  S   S    S  E S  S S  S    S    S  E
||---------10-(10)-(10)----------11--(11)-(11)---|
||o-8h10p8----(10)--(8)-8-8h10p8-(8)-(10)--(8)-8-|
||-----------------------------------------------|
||-----------------------------------------------|
||o----------------------------------------------|
||-----------------------------------------------|
|
|   Gtr II
|   Q.                  E Q.                   E
||-----------------------------------------------|
||o-8-------------------8-8--------------------8-|
||-----------------------------------------------|
||-----------------------------------------------|
||o----------------------------------------------|
||-----------------------------------------------|


  S  S S  S    S    S  E S  S S  S    S    S  E
|--------13--(13)-(13)----------11--(11)-(11)---|
|-8h10p8-(8)-(10)--(8)-8-8h10p8-(8)-(10)--(8)-8-|
|-----------------------------------------------|
|-----------------------------------------------|
|-----------------------------------------------|
|-----------------------------------------------|
|
| Q.                   E Q.                   E
|-----------------------------------------------|
|-8--------------------8-8--------------------8-|
|-----------------------------------------------|
|-----------------------------------------------|
|-----------------------------------------------|
|-----------------------------------------------|


  S  S S  S    S    S  E S   S S  S S S S  S
|--------10--(10)-(10)-----------10---8---10-|
|-8h10p8-(8)-(10)--(8)-8-8--13-8----8--------|
|--------------------------------------------|
|--------------------------------------------|
|--------------------------------------------|
|--------------------------------------------|
|
| Q.                   E Q.             E
|--------------------------------------------|
|-8--------------------8-8--------------8----|
|--------------------------------------------|
|--------------------------------------------|
|--------------------------------------------|
|--------------------------------------------|


  S  S S  E E    E      S  S S  S  S e
|-8----8-10-8---10----(10)-8---10-------||
|----7------------------7----7----10-8-o||
|---------------------------------------||
|---------------------------------------||
|--------------------------------------o||
|---------------------------------------||
|
| Q.          E    Q.                E
|---------------------------------------||
|-7-----------7----7-----------------7-o||
|---------------------------------------||
|---------------------------------------||
|--------------------------------------o||
|---------------------------------------||


 Chorus
  N.C.
  Gtrs III, IV
  H.      Q    H.      Q    W          +W
|------------|------------|----------|--------|
|------------|------------|----------|--------|
|------------|------------|----------|--------|
|------------|------------|----------|--------|
|------------|---------3--|-5--------|-(5)----|
|-3-------5--|-6----------|----------|--------|


  H.      Q    Q  H    Q    W          +W
|------------|------------|----------|--------|
|------------|------------|----------|--------|
|------------|------------|----------|--------|
|------------|------------|----------|--------|
|------------|-3-------3--|-5--------|-(5)----|
|-3-------5--|----6-------|----------|--------|


  H.      Q    Q  H    Q    W          +W
|------------|------------|----------|--------|
|------------|------------|----------|--------|
|------------|------------|----------|--------|
|------------|------------|----------|--------|
|------------|-3----------|----------|--------|
|-3-------5--|----6----5--|-2--------|-(2)----|
|
| Gtr IV
| TP      TP   TP TP   TP   TP          TP
| H.      Q    Q  H    Q    W          +W
|------------|------------|----------|--------|
|------------|------------|----------|--------|
|------------|------------|----------|--------|
|------------|------------|----------|--------|
|------------|-3----------|----------|--------|
|-3-------5--|----6----5--|-2--------|-(2)----|


  H.      Q    H.      Q    W          +W
|------------|------------|----------|--------|
|------------|------------|----------|--------|
|------------|------------|----------|--------|
|------------|------------|----------|--------|
|------------|------------|----------|--------|
|-3-------5--|-6-------5--|-2--------|-(2)----|
|
| TP      TP   TP      TP   TP          TP
| H.      Q    H.      Q    W          +W
|------------|------------|----------|--------|
|------------|------------|----------|--------|
|------------|------------|----------|--------|
|------------|------------|----------|--------|
|------------|------------|----------|--------|
|-3-------5--|-6-------5--|-2--------|-(2)----|


   Verse
      Gm
   4/4
    Gtr I
    E e E  s  E.  E  E  E    E e E  s  E.  E  E  E
||-------------------------|------------------------|
||o---3-3-(3)-3--(3)-3-(3)-|---3-3-(3)-3--(3)-3-(3)-|
||----3-3-(3)-3--(3)-3-(3)-|---3-3-(3)-3--(3)-3-(3)-|
||----5-5-(5)-5--(5)-4-(4)-|---5-5-(5)-5--(5)-4-(4)-|
||o--------5---------------|--------5---------------|
||----------------3-----2--|---------------3-----2--|


  E e E  s  E.  E  E  E    e e E  s  E.  E  E  E
|------------------------|--------------------------||
|---3-3-(3)-3--(3)-3-(3)-|-3-3-3-(3)-3--(3)-3-(3)--o||
|---3-3-(3)-3--(3)-3-(3)-|-3-3-3-(3)-3--(3)-3-(3)---||
|---5-5-(5)-5--(5)-4-(4)-|-5-5-5-(5)-5--(5)-4-(4)---||
|--------5---------------|--------5----------------o||
|---------------3-----2--|---------------3-----2----||


    Cm        Cm/A
               |-------3-------|
  E E +T   a   Q   a   Q   a   Q   a   e..
|------------------------------------------|
|---4-(4)------4-------4-------4-------4---|
|---5-(5)------5-------5-------5-------5---|
|---------(5)-(7)-(5)-(7)-(5)-(7)-(5)-(7)--|
|------------------------------------------|
|------------------------------------------|


    Cm        Cm/A
               |-------3-------|
  E E +T   a   Q   a   Q   a   Q   a   e..
|------------------------------------------|
|---4-(4)------4-------4-------4-------4---|
|---5-(5)------5-------5-------5-------5---|
|---------(5)-(7)-(5)-(7)-(5)-(7)-(5)-(7)--|
|------------------------------------------|
|------------------------------------------|


      Gm
   4/4
    Gtr I
    E e E  s  E.  E  E  E    E e E  s  E.  E  E  E
||-------------------------|------------------------|
||o---3-3-(3)-3--(3)-3-(3)-|---3-3-(3)-3--(3)-3-(3)-|
||----3-3-(3)-3--(3)-3-(3)-|---3-3-(3)-3--(3)-3-(3)-|
||----5-5-(5)-5--(5)-4-(4)-|---5-5-(5)-5--(5)-4-(4)-|
||o--------5---------------|--------5---------------|
||----------------3-----2--|---------------3-----2--|


  E e E  s  E.  E  E  E    e e E  s  E.  E  E  E
|------------------------|--------------------------||
|---3-3-(3)-3--(3)-3-(3)-|-3-3-3-(3)-3--(3)-3-(3)--o||
|---3-3-(3)-3--(3)-3-(3)-|-3-3-3-(3)-3--(3)-3-(3)---||
|---5-5-(5)-5--(5)-4-(4)-|-5-5-5-(5)-5--(5)-4-(4)---||
|--------5---------------|--------5----------------o||
|---------------3-----2--|---------------3-----2----||


  N.C.
 4/4
  Gtr II
  E. E. E E. E. E      E. E. E E. E.   E
|-6--5----6--5------|--6--5----8--6----5-|
|-------8-------8---|--------8-----------|
|-------------------|--------------------|
|-------------------|--------------------|
|-------------------|--------------------|
|-------------------|--------------------|
|
| Gtr III
|                      >
| W                    H.            Q
|-------------------|--------------------|
|-------------------|-20-----------------|
|-------------------|--------------------|
|-------------------|--------------------|
|-------------------|--------------------|
|-------------------|--------------------|


  E. E. E E. E. E      E. E. E E. E.   E
|-6--5----6--5------|-----5----5--6----5-|
|-------8-------8---|--7-----7-----------|
|-------------------|--------------------|
|-------------------|--------------------|
|-------------------|--------------------|
|-------------------|--------------------|
|
|                      >
| W                    H.            Q
|-------------------|--------------------|
|-------------------|-20-----------------|
|-------------------|--------------------|
|-------------------|--------------------|
|-------------------|--------------------|
|-------------------|--------------------|


  E. E. E E. E. E      E. E. E E. E.   E
|-6--5----6--5------|--6--5----8--6----5-|
|-------8-------8---|--------8-----------|
|-------------------|--------------------|
|-------------------|--------------------|
|-------------------|--------------------|
|-------------------|--------------------|
|
|                      >
| W                    H.            Q
|-------------------|-22-----------------|
|-------------------|--------------------|
|-------------------|--------------------|
|-------------------|--------------------|
|-------------------|--------------------|
|-------------------|--------------------|


  E. E. E E. E. E      E. E. E E. E.   E
|-6--5----6--5------|-----5----5--6----5-|
|-------8-------8---|--7-----7-----------|
|-------------------|--------------------|
|-------------------|--------------------|
|-------------------|--------------------|
|-------------------|--------------------|
|
|                      >
| W                    H.            Q
|-------------------|--------------------|
|-------------------|-20-----------------|
|-------------------|--------------------|
|-------------------|--------------------|
|-------------------|--------------------|
|-------------------|--------------------|


   Pre-Chorus
    N.C.
    Gtr I
    S  S S  S   S    S  E S  S S  S    S    S  E
||---------10-(10)-(10)----------11--(11)-(11)---|
||o-8h10p8----(10)--(8)-8-8h10p8-(8)-(10)--(8)-8-|
||-----------------------------------------------|
||-----------------------------------------------|
||o----------------------------------------------|
||-----------------------------------------------|
|
|   Gtr II
|   Q.                  E Q.                   E
||-----------------------------------------------|
||o-8-------------------8-8--------------------8-|
||-----------------------------------------------|
||-----------------------------------------------|
||o----------------------------------------------|
||-----------------------------------------------|


  S  S S  S    S    S  E S  S S  S    S    S  E
|--------13--(13)-(13)----------11--(11)-(11)---|
|-8h10p8-(8)-(10)--(8)-8-8h10p8-(8)-(10)--(8)-8-|
|-----------------------------------------------|
|-----------------------------------------------|
|-----------------------------------------------|
|-----------------------------------------------|
|
| Q.                   E Q.                   E
|-----------------------------------------------|
|-8--------------------8-8--------------------8-|
|-----------------------------------------------|
|-----------------------------------------------|
|-----------------------------------------------|
|-----------------------------------------------|


  S  S S  S    S    S  E S   S S  S S S S  S
|--------10--(10)-(10)-----------10---8---10-|
|-8h10p8-(8)-(10)--(8)-8-8--13-8----8--------|
|--------------------------------------------|
|--------------------------------------------|
|--------------------------------------------|
|--------------------------------------------|
|
| Q.                   E Q.             E
|--------------------------------------------|
|-8--------------------8-8--------------8----|
|--------------------------------------------|
|--------------------------------------------|
|--------------------------------------------|
|--------------------------------------------|


  S  S S  E E    E      S  S S  S  S e
|-8----8-10-8---10----(10)-8---10-------||
|----7------------------7----7----10-8-o||
|---------------------------------------||
|---------------------------------------||
|--------------------------------------o||
|---------------------------------------||
|
| Q.          E    Q.                E
|---------------------------------------||
|-7-----------7----7-----------------7-o||
|---------------------------------------||
|---------------------------------------||
|--------------------------------------o||
|---------------------------------------||


   Breakdown
    Bb/D
    Gtr II
    q  q  q  q   3x q  q  H
||--6--6--6--6---||-6--6--6----|
||o-3--3--3--3--o||-3--3--3----|
||--3--3--3--3---||-3--3--3----|
||--0--0--0--0---||-0--0--0----|
||o-------------o||------------|
||---------------||------------|


    Gm
    Gtr III
     q   q   q   q   3x  q   q   Q       Q
||-------------------||-----------------------|
||o-----------------o||-----------------------|
||---3---3---3---3---||--3---3---3------------|
||---5---5---5---5---||--5---5---5------------|
||o--5---5---5---5--o||--5---5---5------------|
||---3---3---3---3---||--3---3---3------------|
|
|   Gtr IV
|    q   q   q   q   3x  q   q   E   E   E  E
||--10--10--10--10---||-10--10--10--10--------|
||o-11--11--11--11--o||-11--11--11-(11)-11----|
||-------------------||--------------------12-|
||-------------------||-----------------------|
||o-----------------o||-----------------------|
||-------------------||-----------------------|


                                      Dm                D
   q   q   q   q     q   q   q   q     q   q   q   q     q   q   q   q
|-----------------|-----------------|--1---1---1---1--|--2---2---2---2---|
|--3---3---3---3--|--3---3---3---3--|--3---3---3---3--|--3---3---3---3---|
|--3---3---3---3--|--3---3---3---3--|--2---2---2---2--|--2---2---2---2---|
|--5---5---5---5--|--5---5---5---5--|--0---0---0---0--|--0---0---0---0---|
|--5---5---5---5--|--5---5---5---5--|-----------------|------------------|
|--3---3---3---3--|--3---3---3---3--|-----------------|------------------|
|
|  q   q   q   q     q   q   q   q     q   q   q   q     q   q   q   q
|-10--10--10--10--|-10--10--10--10--|-10--10--10--10--|-10--10--10--10---|
|-11--11--11--11--|-11--11--11--11--|-11--11--11--11--|-11--11--11--11---|
|-12--12--12--12--|-12--12--12--12--|-10--10--10--10--|-11--11--11--11---|
|-----------------|-----------------|-----------------|------------------|
|-----------------|-----------------|-----------------|------------------|
|-----------------|-----------------|-----------------|------------------|


  Gm                                  Dm                D
   q   q   q   q     q   q   q   q     q   q   q   q     q   q   Q       Q
|-----------------|-----------------|--1---1---1---1--|--2---2---2-------------|
|--3---3---3---3--|--3---3---3---3--|--3---3---3---3--|--3---3---3-------------|
|--3---3---3---3--|--3---3---3---3--|--2---2---2---2--|--2---2---2-------------|
|--5---5---5---5--|--5---5---5---5--|--0---0---0---0--|--0---0---0-------------|
|--5---5---5---5--|--5---5---5---5--|-----------------|------------------------|
|--3---3---3---3--|--3---3---3---3--|-----------------|------------------------|
|
|  q   q   q   q     q   q   q   q     q   q   q   q     q   q   E   E   E  E
|-10--10--10--10--|-10--10--10--10--|-10--10--10--10--|-10--10--10--10---------|
|-11--11--11--11--|-11--11--11--11--|-11--11--11--11--|-11--11--11-(11)-11-----|
|-12--12--12--12--|-12--12--12--12--|-10--10--10--10--|-11--11--11---------12--|
|-----------------|-----------------|-----------------|------------------------|
|-----------------|-----------------|-----------------|------------------------|
|-----------------|-----------------|-----------------|------------------------|


  Gm                                  Dm                D
   Q   Q   Q   Q     Q   Q   Q   Q     Q   Q   Q   Q     Q   Q   Q   Q
|--3---3---3---3--|--3---3---3---3--|--1---1---1---1--|--2---2---2---2---|
|--3---3---3---3--|--3---3---3---3--|--3---3---3---3--|--3---3---3---3---|
|--3---3---3---3--|--3---3---3---3--|--2---2---2---2--|--2---2---2---2---|
|--5---5---5---5--|--5---5---5---5--|--0---0---0---0--|--0---0---0---0---|
|--5---5---5---5--|--5---5---5---5--|-----------------|------------------|
|--3---3---3---3--|--3---3---3---3--|-----------------|------------------|
|
|  Q   Q   Q   Q     Q   Q   Q   Q     Q   Q   Q   Q     Q   Q   Q   Q
|-10--10--10--10--|-10--10--10--10--|-10--10--10--10--|-10--10--10--10---|
|-11--11--11--11--|-11--11--11--11--|-11--11--11--11--|-11--11--11--11---|
|-12--12--12--12--|-12--12--12--12--|-10--10--10--10--|-11--11--11--11---|
|-----------------|-----------------|-----------------|------------------|
|-----------------|-----------------|-----------------|------------------|
|-----------------|-----------------|-----------------|------------------|


 Chorus
  N.C.
  Gtrs III, IV
  H.      Q    H.      Q    W          +W
|------------|------------|----------|--------|
|------------|------------|----------|--------|
|------------|------------|----------|--------|
|------------|------------|----------|--------|
|------------|---------3--|-5--------|-(5)----|
|-3-------5--|-6----------|----------|--------|


  H.      Q    Q  H    Q    H.      +Q       +H     +H
|------------|------------|----------------|---------------|
|------------|------------|----------------|---------------|
|------------|------------|----------------|---------------|
|------------|------------|----------------|---------------|
|------------|-3-------3--|-5-------(5)b7--|-(5)----(5)----|
|-3-------5--|----6-------|----------------|---------------|


  H.      Q    Q  H    Q    W          +W
|------------|------------|----------|--------|
|------------|------------|----------|--------|
|------------|------------|----------|--------|
|------------|------------|----------|--------|
|------------|-3----------|----------|--------|
|-3-------5--|----6----5--|-2--------|-(2)----|
|
| Gtr IV
| TP      TP   TP TP   TP   TP          TP
| H.      Q    Q  H    Q    W          +W
|------------|------------|----------|--------|
|------------|------------|----------|--------|
|------------|------------|----------|--------|
|------------|------------|----------|--------|
|------------|-3----------|----------|--------|
|-3-------5--|----6----5--|-2--------|-(2)----|


                                        >
  H.      Q    H.      Q    W          +W
|------------|------------|----------|--------*|
|------------|------------|----------|--------*|
|------------|------------|----------|--------*|
|------------|------------|----------|--------*|
|------------|------------|----------|--------*|
|-3-------5--|-6-------5--|-2--------|-(2)----*|
|
| TP      TP   TP      TP   TP          TP
| H.      Q    H.      Q    W          +W
|------------|------------|----------|--------*|
|------------|------------|----------|--------*|
|------------|------------|----------|--------*|
|------------|------------|----------|--------*|
|------------|------------|----------|--------*|
|-3-------5--|-6-------5--|-2--------|-(2)----*|



Duration Legend
---------------
W - whole; H - half; Q - quarter; E - 8th; S - 16th; T - 32nd; X - 64th; a - acciaccatura
+ - note tied to previous; . - note dotted; .. - note double dotted
Uncapitalized letters represent notes that are staccato (1/2 duration)
Irregular groupings are notated above the duration line
Duration letters will always appear directly above the note/fret number it represents the
duration for.  Duration letters with no fret number below them represent rests.  Multi-
bar rests are notated in the form Wxn, where n is the number of bars to rest for.  Low
melody durations appear below the staff

Tablature Legend
----------------
 h   - hammer-on
 p   - pull-off
 b   - bend
 pb  - pre-bend
 r   - bend release (if no number after the r, then release immediately)
 /\  - slide into or out of (from/to "nowhere")
 s   - legato slide
 S   - shift slide
 - natural harmonic
[n]  - artificial harmonic
n(n) - tapped harmonic
 ~   - vibrato
 tr  - trill
 T   - tap
 TP  - trem. picking
 PM  - palm muting
\n/  - tremolo bar dip; n = amount to dip
 \n  - tremolo bar down
 n/  - tremolo bar up
/n\  - tremolo bar inverted dip
 =   - hold bend; also acts as connecting device for hammers/pulls
 <> - volume swell (louder/softer)
 x   - on rhythm slash represents muted slash
 o   - on rhythm slash represents single note slash

Misc Legend
-----------
 |  - bar
||  - double bar
||o - repeat start
o|| - repeat end
*|  - double bar (ending)
 :  - bar (freetime)
 $  - Segno
 &  - Coda
Tempo markers -  = BPM(8/16=s8/s16), where s8 = swing 8ths, s16 = swing 16ths


            
            
Suggest correction
Creating personal tab
Creating personal tab
You can edit any tab online and save it as your Personal.

You can edit, replace or remove any tab part or add personal notes – all changes will be seen only by you.

Personal tabs can be accessed anytime from any device, even offline.
Learn more »
Give kudos to tab author, rate the tab!
1 2 3 4 5
comments
print report bad tab
guest
You may want to rate the tab now too:
select rating
Wanna post a correction for this tab? Suggest correction