Oops, an error
Loading. Please wait.

Spit Shine Your Black Clouds bass

version 1
version 1

Whole song

Interactive

650 views 1 this week
no commentswrite comment
1 2 3 4 5
3 more votes to show rating
add to favorites
×
Save as Personal and add changes to this tab that will be seen only by you. Learn more ›
×
You can save this tab as Personal to edit and correct it or add notes. All changes will be seen only by you. Learn more »
launch autoscroll
font size
0
reset
guitar tuner
edit
Autoscroll
slow
fast
+/-
esc
set tempo
stop
                         Spit Shine Your Black Clouds                           


                                                              The Blood Brothers
Bass



     Q.        E  E  E  E  E  E  E  E     E  E  E  E  E  E  E  E   
G||---------|--------------------------|--------------------------|
D||---------|--------------------------|--------------------------|
A||---------|--8-----8-----8-----8-----|--8-----8-----8-----8-----|
E||---------|--------------------------|--------------------------|


  E  E  E  E  E  E  E  E     E  E  E  E  H           E  E  E  E  E  E  E  E   
--------------------------|-----------------------|--------------------------|
--------------------------|-----------------------|--------------------------|
--8-----8-----8-----8-----|--8-----8--------------|--8-----8-----8-----8-----|
--------------------------|-----------------------|--------------------------|


  E  E  E  E  E  E  E  S S    E  E  E  E  E  E  E  E   
---------------------------|--------------------------|
-------------------------7-|--------------------------|
--8-----8-----8-----8--8---|--8-----8-----8-----8-----|
---------------------------|--------------------------|


  E  E  E  E  E  E  E  E     E  E  E  E  E  E  E  E   
--------------------------|--------------------------|
--------------------------|--------------------------|
--8-----8-----8-----8-----|--6-----6-----6-----6-----|
--------------------------|--------------------------|


  Q    E  E  Q    E  S S     E  E  E  E  E  E  E  E   
--------------------------|--------------------------|
--------------------------|--------------------------|
--6----6-----6----6----6h-|--8-----8-----8-----8-----|
--------------------------|--------------------------|


  E  E  E  E  E  E  E  S S    E  E  E  E  E  E  E  E   
---------------------------|--------------------------|
-------------------------7-|--------------------------|
--8-----8-----8-----8--8---|--8-----8-----8-----8-----|
---------------------------|--------------------------|


  E  E  E  E  E  E  E  E     E  E  E  E  E  E  E  E   
--------------------------|--------------------------|
--------------------------|--------------------------|
--8-----8-----8-----8-----|--6-----6-----6-----6-----|
--------------------------|--------------------------|


  Q    E  E  Q    E  S S     E  E  E  E  E  E  E  E   
--------------------------|--------------------------|
--------------------------|--------------------------|
--6----6-----6----6----6h-|--8--6--8-----8-----8-----|
--------------------------|-----------8--------------|


  E  E  E  E  E  E  E  S S    E  E  E  E  E  E  E  E   
---------------------------|--------------------------|
-------------------------7-|--------------------------|
--8-----8-----8-----8--8---|--8-----8-----8-----8-----|
---------------------------|--------------------------|


  E  E  E  E  E  E  E  E     E  E  E  E  E  E  E  E   
--------------------------|--------------------------|
--------------------------|--------------------------|
--8-----8-----8-----8-----|--6-----6-----6-----6-----|
--------------------------|--------------------------|


  Q    E  E  Q    E  S S     E  E  E  S S  E  E  E  S S   
--------------------------|------------------------------|
--------------------------|------------------------------|
--6----6-----6----6----6h-|--8-----8----6h-8-----8----6h-|
--------------------------|------------------------------|


  E  E  E  S S  E  E  E  S S     E  E  E  S S  E  E  E  S S   
------------------------------|------------------------------|
------------------------------|------------------------------|
--8--8--8----6h-8-----8----6h-|--8--8--8----6h-8-----8----6h-|
------------------------------|------------------------------|


  E  E  E  S S  E  E  E  S S     E  E  S S S S  E  E  E  S S   
------------------------------|-------------------------------|
------------------------------|-------------------------------|
--8--8--8----6h-8-----8----3h-|--6--6--6-6---3h-6-----6----3h-|
------------------------------|-------------------------------|


  E  E  S S S S  E  E  Q       W                     E   E  E  E  H         
----------------------------|-------------------|--------------------------|
----------------------------|-------------------|--0g9p--7-----5--5--------|
--6--6--6-6---3h-6-----6----|--2----------------|--------------------------|
----------------------------|-------------------|--------------------------|


  W                   W                   E  E  E  E  E.  S Q     
-------------------|-------------------|-------------------------|
--L----------------|--4----------------|--------0--2-------------|
-------------------|-------------------|--2--2--------2-----2----|
-------------------|-------------------|-------------------------|


  Q.     E  Q.     E     E.  S E.  S E.  S Q       E  E  Q    Q    Q     
----------------------|-------------------------|-----------------------|
--5------5--5------5--|--2-----2-----2-----2----|--L--------------------|
----------------------|-------------------------|-----0--0----0----0----|
----------------------|-------------------------|-----------------------|


  E  E  E  E  E.  S Q       H        H           E.  S Q    Q    Q     
-------------------------|--------------------|-----------------------|
--------0--2-------------|--5--------5--------|--4-----4----4----4----|
--2--2--------2-----2----|--------------------|-----------------------|
-------------------------|--------------------|-----------------------|


  S S E  Q     E  E  Q       E  E  E  E  E.  S Q       E  Q    E  Q.     E   
--------------------------|-------------------------|-----------------------|
--L-----------------------|--------0--2-------------|--5--5----5--5------5--|
------4--4----/9--9--9----|--2--2--------2-----2----|-----------------------|
--------------------------|-------------------------|-----------------------|


  E.  S E.  S E  E  E  E     E  E  E  E  E  E  E  E     Q    H        E  E    
--------------------------|-----------------------0--|--4--------------------|
--2-----2-----2--2--2--2--|--2--------------0--2-----|-----------------------|
--------------------------|-----0--0--2--2-----------|-------------------2S--|
--------------------------|--------------------------|-----------------------|


   E  E   E  E   E  S S S S E     E  E  E  H        E    
-------------------------------|------------------------|
-------------------------------|------------------------|
--14-----12-----10----9-L---7--|--5--7--5-----------2S--|
-------------------------------|------------------------|


   E   E   E.  S  E  S S S S E     E  E  H.            
--------------------------------|---------------------|
--------------------------------|---------------------|
--14--14--12-----10----9-L---7--|--5------------------|
--------------------------------|---------------------|


  E  E  E  E  E  E  E  E     E  E  E  E  E  E  E  E   
--------------------------|--------------------------|
--------------------------|--------------------------|
--------------------------|--8-----8-----8-----8-----|
--4--4--4--4--4--4--4--4--|--------------------------|


  E  E  E  E  E  E  E  S S    E  E  E  E  E  E  E  E   
---------------------------|--------------------------|
-------------------------7-|--------------------------|
--8-----8-----8-----8--8---|--8-----8-----8-----8-----|
---------------------------|--------------------------|


  E  E  E  E  E  E  E  E     E  E  E  E  E  E  E  E   
--------------------------|--------------------------|
--------------------------|--------------------------|
--8-----8-----8-----8-----|--6-----6-----6-----6-----|
--------------------------|--------------------------|


  E  E  E  E  E  E  E  E     E  E  E  E  E  E  E  E   
--------------------------|--------------------------|
--------------------------|--------------------------|
--6-----6-----6-----6-----|--8--6--8-----8-----8-----|
--------------------------|-----------8--------------|


  E  E  E  E  E  E  E  S S    E  E  E  E  E  E  E  E   
---------------------------|--------------------------|
-------------------------7-|--------------------------|
--8-----8-----8-----8--8---|--8-----8-----8-----8-----|
---------------------------|--------------------------|


  E  E  E  E  E  E  E  E     E  E  E  E  E  E  E  E   
--------------------------|--------------------------|
--------------------------|--------------------------|
--8-----8-----8-----8-----|--6-----6-----6-----6-----|
--------------------------|--------------------------|


  E  E  E  E  E  E  E  E     E  E  S S S S  E  E  E  S S   
--------------------------|-------------------------------|
--------------------------|-------------------------------|
--6-----6-----6-----6-----|--8--8--8-8---6h-8-----8----6h-|
--------------------------|-------------------------------|


  E  E  S S S S  E  S S  E  E     E  E  S S S S  E  S S  E  S S   
-------------------------------|---------------------------------|
-------------------------------|---------------------------------|
--8--8--8-8---6h-8----6h-8-----|--8--8--8-8---6h-8----6h-8----6h-|
-------------------------------|---------------------------------|


  E  E  S S S S  E  S S  E  E     E  E  Q    E  E  Q      
-------------------------------|-------------------------|
-------------------------------|-------------------------|
--8--8--8-8---6h-8----6h-8-----|-----0--0----4--4--4\----|
-------------------------------|-------------------------|


  E  E  E  E  E  E  Q        E  E  Q    E  E  Q       E  E  Q    E  E  Q     
--------------------------|------------------------|------------------------|
--------------------------|------------------------|------------------------|
-----0--0--2--2--4--4\----|------------------------|------------------------|
--------------------------|--2--2--2----5--5--5----|-----2--2-------5--5----|


  E  E  Q    E  E  Q        E  E  E  E  E  E  Q        E  E  Q    E  E  Q     
-------------------------|--------------------------|------------------------|
-------------------------|--------------------------|------------------------|
-----0--0----4--4--4\----|-----0--0--2--2--4--4\----|------------------------|
-------------------------|--------------------------|--2--2--2----5--5--5----|


  E  E  Q    E  E  Q       E  E  Q    E  E  Q        E  E  E  E  E  E  Q      
------------------------|-------------------------|--------------------------|
--4--4--4----7--7--7----|-------------------------|--------------------------|
------------------------|-----0--0----4--4--4\----|-----0--0--2--2--4--4\----|
------------------------|-------------------------|--------------------------|


  E  E  Q    E  E  Q       E  E  Q      E  E  Q     
------------------------|--------------------------|
------------------------|--------------------------|
------------------------|--------------/8--8--8----|
--2--2--2----5--5--5----|--2--2--2/----------------|


   E.  S E.  S E.  S E.   S    E.  S E.  S E.  S E  S S  
----------------------------|---------------------------|
----------------------------|-------------------------7-|
--/8-----8-----8-----8\-----|--8-----8-----8-----8--8---|
----------------------------|---------------------------|


  E.  S E.  S E.  S E.   S    E.  S E.  S E.  S E.  S  
---------------------------|--------------------------|
---------------------------|--------------------------|
--8-----8-----8-----8\-----|--8-----8-----8-----8-----|
---------------------------|--------------------------|


  E.  S E.  S E.  S E.  S    E.  S E.  S E.  S E.  S  
--------------------------|--------------------------|
--------------------------|--------------------------|
--6-----6-----6-----6-----|--6-----6-----6-----6-----|
--------------------------|--------------------------|


  E  E  E  E  E.  S E.  S    E.  S E.  S E.  S E  S S  
--------------------------|---------------------------|
--------------------------|-------------------------7-|
--8--6--8-----8-----8-----|--8-----8-----8-----8--8---|
-----------8--------------|---------------------------|


  S E.  E  E  E.  S E.  S    E.  S E.  S E.  S E.  S   
--------------------------|---------------------------|
----7---------------------|---------------------------|
--8-----8--6--8-----8-----|--8-----8-----8-----8---3h-|
--------------------------|---------------------------|


  E  E  E.  S E.  S E  S S     E  E  E.  S Q    E  E   
----------------------------|-------------------------|
----------------------------|-------------------------|
--6--6--6-----6-----6----3h-|--6--6--6-----6----6--8--|
----------------------------|-------------------------|


  E  E  E  E  E  E  E  E     E  E  E  E  E  E  E  E   
--------------------------|--------------------------|
--------------------------|-----------0--2-----5-----|
--2--2--4--0--2-----2-----|--2--2--2-----------------|
--------------------------|--------------------------|


  E  E  E  E  E  E  E  E     E  E  E  E  E  E  E  E   
--------------------------|--------------------------|
--------------------------|--------4-----------4-----|
--2--2--4--0--2-----2-----|--2--4-----4--4-----------|
--------------------------|--------------------------|


  E  E  E  E  E  E  E  E     E  E  E  E  E  E  E  E   
--------------------------|--------------------------|
--------------------------|-----------4--5-----5-----|
--2--2--4--0--2-----2-----|--2--2--4-----------------|
--------------------------|--------------------------|


  E  E  E  E  E  E  E  E     E  E  Q    E  E  E  E     E  E  E  E  E  E  E  E   
--------------------------|-------------------------|--------------------------|
-----------0--2-----2-----|-------------------------|-----------2--------------|
--2--2--2-----------------|--0--0--2----0-----0-----|--2--2--4-----2-----2-----|
--------------------------|-------------------------|--------------------------|


  E  E  E  E  E  E  E  E     E  E  E  E  E  E  E  E   
--------------------------|--------------------------|
-----------2--------------|-----------2--------------|
--2--2--4-----2-----2-----|--2--2--4-----2-----2-----|
--------------------------|--------------------------|


  E  E  E  E  E  E  E  E     E  E  E  E  E  E  E  E   
--------------------------|--------------------------|
-----------------4--4-----|-----------2--------------|
--2--2--5--4--4-----------|--2--2--4-----2-----2-----|
--------------------------|--------------------------|


  E  E  E  E  E  E  E  E     E  E  E  E  E  E  E  E   
--------------------------|--------------------------|
-----------2--------------|-----------2--------------|
--2--2--4-----2-----2-----|--2--2--4-----2-----2-----|
--------------------------|--------------------------|


  E  E  E  E  E  E  E  E     E  E  E  E  E  E  E  E   
--------------------------|--------------------------|
-----------2--------------|-----------2--------------|
--2--2--4-----0-----0-----|--2--2--4-----2-----2-----|
--------------------------|--------------------------|


  E  E  E  E  E  E  E  E     E  E  E  E  E  E  E  E   
--------------------------|--------------------------|
-----------4--------------|-----------2--------------|
--2--2--4-----4--2--2-----|--2--2--4-----2-----2-----|
--------------------------|--------------------------|


  E  E  E  E  E  E  E  E     E  E  E  E  E  E  E  E   
--------------------------|--------------------------|
--------------------2-----|-----------2--------------|
--2--5--5--4--4--5--------|--2--2--4-----2-----2-----|
--------------------------|--------------------------|


  E  E  E  E  E  E  E  E     E  E  E  E  E  E  E  E   
--------------------------|--------------------------|
-----------4--------------|-----------2--------------|
--2--2--4-----2-----2-----|--2--2--4-----2-----2-----|
--------------------------|--------------------------|


  E  E  E  E  E  E  E  E     E.  S H.              W                  
--------------------------|---------------------|-------------------||
--------2-----------------|---------------------|-------------------||
--2--5-----2--4--0--0--0--|--0------------------|-------------------||
--------------------------|---------------------|-------------------||




Duration Legend
---------------
W - whole
H - half
Q - quarter
E - 8th
S - 16th
T - 32nd
X - 64th
. - note dotted
|-n-|  - n-tuplets


Tablature Legend
----------------
L - tied note
x - dead note
g - grace note
(n) - ghost note
> - accentuded note
NH - natural harmonic
AH - artificial harmonic
TH - tapped harmonic
SH - semi harmonic
PH - pitch harmonic
h - hammer on
p - pull off
b - bend
br - bendRelease
pb - preBend
pbr - preBendRelease
brb - bendReleaseBend
\n/ - tremolo bar dip
\n - tremolo bar dive
-/n - tremolo bar Release up
/n\ - tremolo bar inverted dip
/n - tremolo bar return
-\n - tremolo bar Release down
S - shift slide
s - legato slide
/ -  slide into from below or out of upwards
\ -  slide into from above or out of downwards
~ - vibrato
W - wide vibrato
tr - trill
TP - tremolo picking
T - tapping
S - slap
P - pop
< - fade in
^ - brush up
v - brush down

            
            
Suggest correction
Creating personal tab
Creating personal tab
You can edit any tab online and save it as your Personal.

You can edit, replace or remove any tab part or add personal notes – all changes will be seen only by you.

Personal tabs can be accessed anytime from any device, even offline.
Learn more »
Give kudos to tab author, rate the tab!
1 2 3 4 5
comments
print report bad tab
guest
You may want to rate the tab now too:
select rating
Wanna post a correction for this tab? Suggest correction