Oops, an error
Loading. Please wait.

Spit Shine Your Black Clouds tab

version 1
version 1

Whole song

Interactive

1,042 views 3 this week
no commentswrite comment
1 2 3 4 5
3 more votes to show rating
add to favorites
×
Save as Personal and add changes to this tab that will be seen only by you. Learn more ›
×
You can save this tab as Personal to edit and correct it or add notes. All changes will be seen only by you. Learn more »
launch autoscroll
font size
0
reset
how to read this tab
guitar tuner
edit
Autoscroll
slow
fast
+/-
esc
set tempo
stop
Spit Shine Your Black Clouds                           
The Blood Brothers
Guitar



     Q.        E.  S E.  S E.  S E.  S    E.  S E.  S E  S S S S E   
E||---------|--------------------------|----------------------------|
B||---------|--------------------------|----------------------------|
G||---------|--------------------------|---------------------3---2--|
D||---------|--3-----3-----3-----3-----|--3-----3-----3----3---3----|
A||---------|--------------------------|----------------------------|
E||---------|--------------------------|----------------------------|


  E.  S E.  S E.  S E.  S    E.  S E.  S H           E.  S E.  S E.  S E.  S  
--------------------------|-----------------------|--------------------------|
--------------------------|-----------------------|--------------------------|
--------------------------|-----------------------|--------------------------|
--3-----3-----3-----3-----|--3-----3--------------|--3-----3-----3-----3-----|
--------------------------|-----------------------|--------------------------|
--------------------------|-----------------------|--------------------------|


  E.  S E.  S E  S S S S E     E.  S E.  S E.  S E.  S  
----------------------------|--------------------------|
----------------------------|--------------------------|
---------------------3---2--|--------------------------|
--3-----3-----3----3---3----|--3-----3-----3-----3-----|
----------------------------|--------------------------|
----------------------------|--------------------------|


  E.  S E.  S E  S S S S E     E.  S E.  S E.  S E.  S  
----------------------------|--------------------------|
----------------------------|--------------------------|
---------------------3---2--|--------------------------|
--3-----3-----3----3---3----|--3-----3-----3-----3-----|
----------------------------|--------------------------|
----------------------------|--------------------------|


  E.  S E.  S E  S S S S E     E.  S E.  S E.  S E.  S  
----------------------------|--------------------------|
----------------------------|--------------------------|
---------------------3---2--|--------------------------|
--3-----3-----3----3---3----|--3-----3-----3-----3-----|
----------------------------|--------------------------|
----------------------------|--------------------------|


  E.  S E.  S E  S S S S E     E.  S E.  S E.  S E.  S  
----------------------------|--------------------------|
----------------------------|--------------------------|
---------------------3---2--|--------------------------|
--3-----3-----3----3---3----|--3-----3-----3-----3-----|
----------------------------|--------------------------|
----------------------------|--------------------------|


  E.  S E.  S E  S S S S E     E.  S E.  S E.  S E.  S  
----------------------------|--------------------------|
----------------------------|--------------------------|
---------------------3---2--|--------------------------|
--3-----3-----3----3---3----|--3-----3-----3-----3-----|
----------------------------|--------------------------|
----------------------------|--------------------------|


  E.  S E.  S E  S S S S E     E.  S E.  S E.  S E.  S  
----------------------------|--------------------------|
----------------------------|--------------------------|
---------------------3---2--|--------------------------|
--3-----3-----3----3---3----|--3-----3-----3-----3-----|
----------------------------|--------------------------|
----------------------------|--------------------------|


  E.  S E.  S E  S S S S E     E.  S E.  S E.  S E.  S  
----------------------------|--------------------------|
----------------------------|--------------------------|
---------------------3---2--|--------------------------|
--3-----3-----3----3---3----|--3-----3-----3-----3-----|
----------------------------|--------------------------|
----------------------------|--------------------------|


  E.  S E.  S E  S S S S E     E.  S E.  S E.  S E.  S  
----------------------------|--------------------------|
----------------------------|--------------------------|
---------------------3---2--|--------------------------|
--3-----3-----3----3---3----|--3-----3-----3-----3-----|
----------------------------|--------------------------|
----------------------------|--------------------------|


  E.  S E.  S E  S S S S E     E  E  S E  S  S E.  E.  S   
----------------------------|-----------------------------|
----------------------------|-----------------------------|
---------------------3---2--|-----------------------------|
--3-----3-----3----3---3----|-----------------------------|
----------------------------|--8--8--8-8--6h-8-8---8---6h-|
----------------------------|-----------------------------|


  E  E  S E  S  S E.  E.  S     E  E  S E  S  S E.  E.  S   
-----------------------------|-----------------------------|
-----------------------------|-----------------------------|
-----------------------------|-----------------------------|
-----------------------------|-----------------------------|
--8--8--8-8--6h-8-8---8---6h-|--8--8--8-8--6h-8-8---8---6h-|
-----------------------------|-----------------------------|


  E  E  S E  S S E.  E.  S     E  E  S E  S  S E  E  E  S   
----------------------------|------------------------------|
----------------------------|------------------------------|
----------------------------|------------------------------|
-------------------------3h-|--6--6----6--3h-6-6--6--6--3h-|
--8--8--8-8--6-8-8---8------|------------------------------|
----------------------------|------------------------------|


  E  E  S E  S  S E  S Q       W                   W                 
----------------------------|-------------------|-------------------|
----------------------------|-------------------|-------------------|
----------------------------|-------------------|-------------------|
--6--6----6--3h-6-6--6-L----|-------------------|-------------------|
----------------------------|-------------------|-------------------|
----------------------------|-------------------|-------------------|


  W                   W                   W                   W                 
-------------------|-------------------|-------------------|-------------------|
-------------------|-------------------|-------------------|-------------------|
-------------------|-------------------|-------------------|-------------------|
-------------------|-------------------|-------------------|-------------------|
-------------------|-------------------|-------------------|-------------------|
-------------------|-------------------|-------------------|-------------------|


  W                   W                   W                   W                 
-------------------|-------------------|-------------------|-------------------|
-------------------|-------------------|-------------------|-------------------|
-------------------|-------------------|-------------------|-------------------|
-------------------|-------------------|-------------------|-------------------|
-------------------|-------------------|-------------------|-------------------|
-------------------|-------------------|-------------------|-------------------|


  W                   W                   W                   W                 
-------------------|-------------------|-------------------|-------------------|
-------------------|-------------------|-------------------|-------------------|
-------------------|-------------------|-------------------|-------------------|
-------------------|-------------------|-------------------|-------------------|
-------------------|-------------------|-------------------|-------------------|
-------------------|-------------------|-------------------|-------------------|


  W                   W                   W                   W                 
-------------------|-------------------|-------------------|-------------------|
-------------------|-------------------|-------------------|-------------------|
-------------------|-------------------|-------------------|-------------------|
-------------------|-------------------|-------------------|-------------------|
-------------------|-------------------|-------------------|-------------------|
-------------------|-------------------|-------------------|-------------------|


  W                   W                   W                 
-------------------|-------------------|-------------------|
-------------------|-------------------|-------------------|
-------------------|-------------------|-------------------|
-------------------|-------------------|-------------------|
-------------------|-------------------|-------------------|
-------------------|-------------------|-------------------|


  S S S S S S S S S S S S S S S S    E.  S E.  S E.  S E.  S  
----------------------------------|--------------------------|
----------------------------------|--------------------------|
----------------------------------|--------------------------|
--x-x-x-x-x-x-x-x-x-x-x-x-x-x-x-x-|--3-----3-----3-----3-----|
--x-x-x-x-x-x-x-x-x-x-x-x-x-x-x-x-|--------------------------|
--x-x-x-x-x-x-x-x-x-x-x-x-x-x-x-x-|--------------------------|


  E.  S E.  S E  S S S S E     E.  S E.  S E.  S E.  S  
----------------------------|--------------------------|
----------------------------|--------------------------|
---------------------3---2--|--------------------------|
--3-----3-----3----3---3----|--3-----3-----3-----3-----|
----------------------------|--------------------------|
----------------------------|--------------------------|


  E.  S E.  S E  S S S S E     E.  S E.  S E.  S E.  S  
----------------------------|--------------------------|
----------------------------|--------------------------|
---------------------3---2--|--------------------------|
--3-----3-----3----3---3----|--3-----3-----3-----3-----|
----------------------------|--------------------------|
----------------------------|--------------------------|


  E.  S E.  S E  S S S S E     E.  S E.  S E.  S E.  S  
----------------------------|--------------------------|
----------------------------|--------------------------|
---------------------3---2--|--------------------------|
--3-----3-----3----3---3----|--3-----3-----3-----3-----|
----------------------------|--------------------------|
----------------------------|--------------------------|


  E.  S E.  S E  S S S S E     E.  S E.  S E.  S E.  S  
----------------------------|--------------------------|
----------------------------|--------------------------|
---------------------3---2--|--------------------------|
--3-----3-----3----3---3----|--3-----3-----3-----3-----|
----------------------------|--------------------------|
----------------------------|--------------------------|


  E.  S E.  S E  S S S S E     E.  S E.  S E.  S E.  S  
----------------------------|--------------------------|
----------------------------|--------------------------|
---------------------3---2--|--------------------------|
--3-----3-----3----3---3----|--3-----3-----3-----3-----|
----------------------------|--------------------------|
----------------------------|--------------------------|


  E.  S E.  S E  S S S S E     S S S S S S S S E  E  S S S S  
----------------------------|--------------------------------|
----------------------------|--------------------------------|
---------------------3---2--|--------------------------------|
--3-----3-----3----3---3----|--------------------------------|
----------------------------|----6-8-8-8-8-8-8-8-----8-8-8---|
----------------------------|--------------------------------|


  S S S S S S S S E  Q.        S S S S S S S S E  E  S S S S  
----------------------------|--------------------------------|
----------------------------|--------------------------------|
----------------------------|--------------------------------|
----------------------------|--------------------------------|
----6-8-8-8-8-8-8-8---------|----6-8-8-8-8-8-8-8-----8-8-8---|
----------------------------|--------------------------------|


                      SH                                      
  S S S S S S S S     H            S S E  Q     S S E  Q      
--------------------------------|----------------------------|
--------------------------------|------7--7\--------7--7\----|
------------------<>(10)--------|----------------------------|
--------------------------------|----------------------------|
----6-8-8-8-8-8-8---<>8---------|----------------------------|
--------------------------------|--2-2----------2-2----------|


  S S E  Q     S S E  Q        S S E  Q    S S E  Q     
----------------------------|--------------------------|
------7--7\--------7--7\----|--------------------------|
----------------------------|--------------------------|
----------------------------|------4--4--------4--4----|
----------------------------|--------------------------|
--2-2----------2-2----------|--2-2---------2-2---------|


  S S E  Q    S S E  Q        S S E  Q     S S E  Q      
---------------------------|----------------------------|
---------------------------|------7--7\--------7--7\----|
---------------------------|----------------------------|
------4--4--------4--4\----|----------------------------|
---------------------------|----------------------------|
--2-2---------2-2----------|--2-2----------2-2----------|


  S S E  Q     S S E  Q        Q    Q    Q    Q       Q    Q    Q    Q     
----------------------------|----------------------|----------------------|
------7--7\--------7--7\----|----------------------|------------5----7----|
----------------------------|-----------------4----|--6----7--------------|
----------------------------|--4----6----7---------|----------------------|
----------------------------|----------------------|----------------------|
--2-2----------2-2----------|----------------------|----------------------|


  S S E  Q     S S E  Q        S S E  Q     S S E  Q      
----------------------------|----------------------------|
------7--7\--------7--7\----|------7--7\--------7--7\----|
----------------------------|----------------------------|
----------------------------|----------------------------|
----------------------------|----------------------------|
--2-2----------2-2----------|--2-2----------2-2----------|


  S S E  Q    S S E  Q       S S E  Q    Q    Q        E.  S E.  S E.  S E.  S  
--------------------------|-------------------------|--------------------------|
--------------------------|-------------------------|--------------------------|
--------------------------|-------------------------|--------------------------|
------4--4--------4--4----|------4--4----3----3\----|--3-----3-----3-----3-----|
--------------------------|-------------------------|--------------------------|
--2-2---------2-2---------|--2-2--------------------|--------------------------|


  E.  S E.  S E  S S S S E     E.  S E.  S E.  S E.  S  
----------------------------|--------------------------|
----------------------------|--------------------------|
---------------------3---2--|--------------------------|
--3-----3-----3----3---3----|--3-----3-----3-----3-----|
----------------------------|--------------------------|
----------------------------|--------------------------|


  E.  S E.  S E  S S S S E     E.  S E.  S E.  S E.  S  
----------------------------|--------------------------|
----------------------------|--------------------------|
---------------------3---2--|--------------------------|
--3-----3-----3----3---3----|--3-----3-----3-----3-----|
----------------------------|--------------------------|
----------------------------|--------------------------|


  E.  S E.  S E  S S S S E     E.  S E.  S E.  S E.  S  
----------------------------|--------------------------|
----------------------------|--------------------------|
---------------------3---2--|--------------------------|
--3-----3-----3----3---3----|--3-----3-----3-----3-----|
----------------------------|--------------------------|
----------------------------|--------------------------|


  E.  S E.  S E  S S S S E     E.  S E.  S E.  S E.  S  
----------------------------|--------------------------|
----------------------------|--------------------------|
---------------------3---2--|--------------------------|
--3-----3-----3----3---3----|--3-----3-----3-----3-----|
----------------------------|--------------------------|
----------------------------|--------------------------|


  E.  S E.  S E  S S S S E     E.  S E.  S E.  S E.  S  
----------------------------|--------------------------|
----------------------------|--------------------------|
---------------------3---2--|--------------------------|
--3-----3-----3----3---3----|--3-----3-----3-----3-----|
----------------------------|--------------------------|
----------------------------|--------------------------|


  E.  S E.  S E  S S S S E     W                   W                 
----------------------------|-------------------|-------------------|
----------------------------|-------------------|-------------------|
---------------------3---2--|-------------------|-------------------|
--3-----3-----3----3---3----|-------------------|-------------------|
----------------------------|-------------------|-------------------|
----------------------------|-------------------|-------------------|


  W                   W                   W                   W                 
-------------------|-------------------|-------------------|-------------------|
-------------------|-------------------|-------------------|-------------------|
-------------------|-------------------|-------------------|-------------------|
-------------------|-------------------|-------------------|-------------------|
-------------------|-------------------|-------------------|-------------------|
-------------------|-------------------|-------------------|-------------------|


  W                   W                   W                   W                 
-------------------|-------------------|-------------------|-------------------|
-------------------|-------------------|-------------------|-------------------|
-------------------|-------------------|-------------------|-------------------|
-------------------|-------------------|-------------------|-------------------|
-------------------|-------------------|-------------------|-------------------|
-------------------|-------------------|-------------------|-------------------|


  W                   W                   W                   W                 
-------------------|-------------------|-------------------|-------------------|
-------------------|-------------------|-------------------|-------------------|
-------------------|-------------------|-------------------|-------------------|
-------------------|-------------------|-------------------|-------------------|
-------------------|-------------------|-------------------|-------------------|
-------------------|-------------------|-------------------|-------------------|


  W                   W                   W                   W                 
-------------------|-------------------|-------------------|-------------------|
-------------------|-------------------|-------------------|-------------------|
-------------------|-------------------|-------------------|-------------------|
-------------------|-------------------|-------------------|-------------------|
-------------------|-------------------|-------------------|-------------------|
-------------------|-------------------|-------------------|-------------------|


  W                   W                   W                   W                 
-------------------|-------------------|-------------------|-------------------|
-------------------|-------------------|-------------------|-------------------|
-------------------|-------------------|-------------------|-------------------|
-------------------|-------------------|-------------------|-------------------|
-------------------|-------------------|-------------------|-------------------|
-------------------|-------------------|-------------------|-------------------|


  W                   W                   W                 
-------------------|-------------------|-------------------|
-------------------|-------------------|-------------------|
-------------------|-------------------|-------------------|
-------------------|-------------------|-------------------|
-------------------|-------------------|-------------------|
-------------------|-------------------|-------------------|


  W                  
-------------------||
-------------------||
-------------------||
-------------------||
-------------------||
-------------------||




Duration Legend
---------------
W - whole
H - half
Q - quarter
E - 8th
S - 16th
T - 32nd
X - 64th
. - note dotted
|-n-|  - n-tuplets


Tablature Legend
----------------
L - tied note
x - dead note
g - grace note
(n) - ghost note
> - accentuded note
NH - natural harmonic
AH - artificial harmonic
TH - tapped harmonic
SH - semi harmonic
PH - pitch harmonic
h - hammer on
p - pull off
b - bend
br - bendRelease
pb - preBend
pbr - preBendRelease
brb - bendReleaseBend
\n/ - tremolo bar dip
\n - tremolo bar dive
-/n - tremolo bar Release up
/n\ - tremolo bar inverted dip
/n - tremolo bar return
-\n - tremolo bar Release down
S - shift slide
s - legato slide
/ -  slide into from below or out of upwards
\ -  slide into from above or out of downwards
~ - vibrato
W - wide vibrato
tr - trill
TP - tremolo picking
T - tapping
S - slap
P - pop
< - fade in
^ - brush up
v - brush down

            
            
Suggest correction
Creating personal tab
Creating personal tab
You can edit any tab online and save it as your Personal.

You can edit, replace or remove any tab part or add personal notes – all changes will be seen only by you.

Personal tabs can be accessed anytime from any device, even offline.
Learn more »
Give kudos to tab author, rate the tab!
1 2 3 4 5
comments
print report bad tab
guest
You may want to rate the tab now too:
select rating
Wanna post a correction for this tab? Suggest correction