Oops, an error
Loading. Please wait.

Trash Flavored Trash tab

version 2
version 2

Whole song

2,200 views 3 this week
3 commentsread comments
1 2 3 4 5
2 more votes to show rating
add to favorites
×
Save as Personal and add changes to this tab that will be seen only by you. Learn more ›
×
You can save this tab as Personal to edit and correct it or add notes. All changes will be seen only by you. Learn more »
launch autoscroll
font size
0
reset
how to read this tab
guitar tuner
edit
Autoscroll
slow
fast
+/-
esc
set tempo
stop
Author
----------------------------------------------------------------------------
	   	Trash Flavored Trash – The Blood Brothers
----------------------------------------------------------------------------
Tabbed by: “max”
Tuning: Standard
Distortion 
Rhythm? Not really
First tab, plz rate

Intro:
e|-------------------------------------------------------------------------|
B|-------------------------------------------------------------------------|
G|-------------------------------------------------------------------------|
D|----8-8-8-8--12-12-12-12--5--55-55-55--5---------------------------------|
A|----8-8-8-8--12-12-12-12--5--55-55-55--5-slide up the neck quickly after-|
E|----6-6-6-6--10-10-10-10--3--33-33-33--3---------------------------------|

Verse 1:
e|-------------------------------------------------------------------------|
B|-------------------------------------------------------------------------|
G|--------------------------8----8----8----8-------------------------------|
D|-----------------------10-8-10-8-10-8-10-8---------------------5---------|
A|-----------------------10-8-10-8-10-8-10-8---------------------5---------|
E|----66666665—X8--------10---10---10---10---------66666665—X8---3---------|

                         ^^Verse Interlude^^
Chorus:
e|-------------------------------------------------------------------------|
B|-------------------------------------------------------------------------|
G|-------------------------------------------------------------------------|
D|----8-8-8-8--12-12-12-12-------------------------------------------------|
A|----8-8-8-8--12-12-12-12-------------------------------------------------|
E|----6-6-6-6--10-10-10-10--33333332-3333333-------------------------------|
	X2
e|-------------------------------------------------------------------------|
B|-------------------------------------------------------------------------|
G|-------------------------------------------------------------------------|
D|----8-8-8-8--12-12-12-12-------------------------------------------------|
A|----8-8-8-8--12-12-12-12-------------------------------------------------|
E|----6-6-6-6--10-10-10-10--33333332-33333---------------------------------|

Verse 2:
e|-------------------------------------------------------------------------|
B|-------------------------------------------------------12h14--14--14-----|
G|------------------12h14-------------------------10h12--------------------|
D|-----------10h12---------3h5p3h5---X3----10h12---------------------------|
A|----10h12----------------------------------------------------------------|
E|-------------------------------------------------------------------------|

e|-------------------------------------------------------------------------|
B|-------------------------------------------------------------------------|
G|------------------12h14--------------------------------------------------|
D|-----------10h12---------3h5p3h5---X2------FEEDBACK/Noise + Bass---------|
A|----10h12----------------------------------------------------------------|
E|-------------------------------------------------------------------------|

The feedback and the weird background noise part goes on for about 4 whole rests altogether.

-Verse, without the verse interlude
-Chorus +
e|----------|
B|----9-----|
G|----x-----|after holding for about 2 beats after the chorus, quickly    
D|----7-----|slide up the neck.
A|----------|
E|----------|

------about 3 or 4 whole rests------

End:
e|-------------------------------------------------------------------------|
B|-------------------------------------------------------------------------|
G|-------------------------------------------------------------------------|
D|-------------------------------------------------------------------------|
A|-------------------------------------------------------------------------|
E|----66-33-55-5-3456---X4-------------------------------------------------|







            
            
Suggest correction
Creating personal tab
Creating personal tab
You can edit any tab online and save it as your Personal.

You can edit, replace or remove any tab part or add personal notes – all changes will be seen only by you.

Personal tabs can be accessed anytime from any device, even offline.
Learn more »
Give kudos to tab author, rate the tab!
1 2 3 4 5
comments
print report bad tab
3 comments total.
0 reply
mrpoop 90 Apr 01, 2006 09:24 AM

The part right after the last chorus is actually this:

e|------------|
B|----9-------|
G|----x-------|
D|----7-------|
A|------------|
E|------------|

sorry about that :\

0 reply
mrpoop 90 Apr 11, 2006 04:55 PM

hmm yeah i fixed it. yeah will someone try this out, rate, and comment it, it kinda feels like i'm talking to myself.

0 reply
MusicIsBliss 143 Aug 02, 2006 04:49 PM

its good

better than the other one
thanks

guest
You may want to rate the tab now too:
select rating
Wanna post a correction for this tab? Suggest correction