Oops, an error
Loading. Please wait.

We Ride Skeletal Lightning tab

version 1
version 1

Whole song

Interactive

2,694 views 1 this week
1 commentread comment
1 2 3 4 5
x 3
add to favorites
×
Save as Personal and add changes to this tab that will be seen only by you. Learn more ›
×
You can save this tab as Personal to edit and correct it or add notes. All changes will be seen only by you. Learn more »
launch autoscroll
font size
0
reset
how to read this tab
guitar tuner
edit
Autoscroll
slow
fast
+/-
esc
set tempo
stop
Author
Difficulty
-------------------------------------------------------------------------------
                WE RIDE SKELETAL LIGHTNING - The Blood Brothers
-------------------------------------------------------------------------------
Tabbed by: Taylor Harris
Email: jtaylorharris@yahoo.com

Tuning: Dropped D (DADGBe)

i originally thought the main riff was as follows:
D|--6----6----6----6----6----6----6----6----
A|----10---10---10---10---10---10---10---10-
But i saw them play it live and he plays it as is in the tab. 
It's the exact same note just on a different string, so however
you wish to play it is fine.

VERSE
e|---------------------------------------------------------------------------|
B|---------------------------------------------------------------------------|
G|----0---0---0---0---0---0---0---0--------[x6]------------------------------|
D|--6---6---6---6---6---6---6---6--------------------------------------------|
A|---------------------------------------------------------------------------|
D|---------------------------------------------------------------------------|

CHORUS
e|------------------------------------------|--------------------------------|
B|------------------------------------------|--------------------------------|
G|-----------0---0---0---0-7---7---7---[x4]-|--------------------------------|
D|-0-0-0---6---6---6---6-----8---8----------|--0-0-0-------------------------|
A|-0-0-0------------------------------------|--0-0-0-------------------------|
D|-0-0-0------------------------------------|--0-0-0-------------------------|

VERSE
e|---------------------------------------------------------------------------|
B|---------------------------------------------------------------------------|
G|----0---0---0---0---0---0---0---0------[x4]--------------------------------|
D|--6---6---6---6---6---6---6---6--------------------------------------------|
A|---------------------------------------------------------------------------|
D|---------------------------------------------------------------------------|

"Don't look away.."
e|---------------------------------------------------------------------------|
B|--9----9----9----9----9----9----9----9-------[x2]--------------------------|
G|----12---12---12---12---12---12---12---12----------------------------------|
D|---------------------------------------------------------------------------|
A|---------------------------------------------------------------------------|
D|---------------------------------------------------------------------------|

CHORUS
e|------------------------------------------|--------------------------------|
B|------------------------------------------|--------------------------------|
G|-----------0---0---0---0-7---7---7---[x4]-|--------------------------------|
D|-0-0-0---6---6---6---6-----8---8----------|--0-0-0-------------------------|
A|-0-0-0------------------------------------|--0-0-0-------------------------|
D|-0-0-0------------------------------------|--0-0-0-------------------------|

BRIDGE "Seven items dripped.."
e|---------------------------------------------------------------------------|
B|---------------------------------------------------------------------------|
G|----7--0-------------------------------------[x4]--------------------------|
D|--0----6~/12----12----12----12---------------------------------------------|
A|--0----------13----13----13----13------------------------------------------|
D|--0------------------------------------------------------------------------|

"Oh Salvation.."
e|---------------------------------------------------------------------------|
B|---3-------3---3-------3---3-------3---3-------3---------------------------|
G|---2-------2---2-------2---2-------2---2-------2----[x4]-------------------|
D|---------------------------------------------------------------------------|
A|---------------------------------------------------------------------------|
D|-0---3~(4)---0---3~(4)---0---3~(4)---0---3~(4)-----------------------------|

 "YEAHHHHHHHHHHHH.."
e|---------------------------------------------------------------------------|
B|---------------------------------------------------------------------------|
G|----0---0---0---0---0---0---0---0------------------------------------------|
D|--6---6---6---6---6---6---6---6--------------------------------------------|
A|---------------------------------------------------------------------------|
D|---------------------------------------------------------------------------|

e|---------------------------------------------------------------------------|
B|---------------------------------------------------------------------------|
G|---------------------------------------------------------------------------|
D|----12-11-10-11-10-9-10-9-8-9-8-7-8-7-0-0-0--------------------------------|
A|--------------------------------------0-0-0--------------------------------|
D|--------------------------------------0-0-0--------------------------------|

CHORUS
e|------------------------------------------|--------------------------------|
B|------------------------------------------|--------------------------------|
G|-----------0---0---0---0-7---7---7---[x4]-|--------------------------------|
D|-0-0-0---6---6---6---6-----8---8----------|--0-0-0-------------------------|
A|-0-0-0------------------------------------|--0-0-0-------------------------|
D|-0-0-0------------------------------------|--0-0-0-------------------------|


OUTRO "We ride, we ride skeletal lightning.."
 play this fast. i put the up and down strokes to help. help yourself with 
the rhythm
e|---------------------------------------------------------------------------|
B|---------------------------------------------------------------------------|
G|--x-x-7-7-x-x-7-7-x-x-7-7-x-x-7-7-x-x-7-7-x-x-7-7-x-x-7-7/4-4-4-4-4-4-4----|
D|--x-x-6-6-x-x-6-6-x-x-6-6-x-x-6-6-x-x-6-6-x-x-6-6-x-x-6-6/3-3-3-3-3-3-3----|
A|--x-x-5-5-x-x-5-5-x-x-5-5-x-x-5-5-x-x-5-5-x-x-5-5-x-x-5-5/2-2-2-2-2-2-2----|
D|--x-x-----x-x-----x-x-----x-x-----x-x-----x-x-----x-x----------------------|
    v ^ v v ^ v v v ^ v v v ^ v v v ^ v v v ^ v v v ^ v v v v ^ v ^ v ^ v

e|---------------------------------------------------------------------------|
B|---------------------------------------------------------------------------|
G|--x-x-7-7-x-x-7-7-x-x-7-7-x-x-7-7------------------------------------------|
D|--x-x-6-6-x-x-6-6-x-x-6-6-x-x-6-6------------------------------------------|
A|--x-x-5-5-x-x-5-5-x-x-5-5-x-x-5-5------------------------------------------|
D|--x-x-----x-x-----x-x-----x-x----------------------------------------------|
    v ^ v v ^ v v v ^ v v v ^ v v v 
e|---------------------------------------------------------------------------|
B|---------------------------------------------------------------------------|
G|--x-x-7-7-x-x-7-7-x-x-7-7/10-10-10-10-10-10-10-----------------------------|
D|--x-x-6-6-x-x-6-6-x-x-6-6/9--9--9--9--9--9--9------------------------------|
A|--x-x-5-5-x-x-5-5-x-x-5-5/8--8--8--8--8--8--8------------------------------|
D|--x-x-----x-x-----x-x------------------------------------------------------|
      ^ v v v ^ v v v ^ v v v v  ^  v  ^  v  ^  v
e|---------------------------------------------------------------------------|
B|---------------------------------------------------------------------------|
G|--x-x-7-7/10-10-10-10-10-10-10-10x-x-7-7/10-10-10-10-10-10-10-10--[x2]-----|
D|--x-x-6-6/9--9--9--9--9--9--9--9-x-x-6-6/9--9--9--9--9--9--9--9------------|
A|--x-x-5-5/8--8--8--8--8--8--8--8-x-x-5-5/8--8--8--8--8--8--8--8------------|
D|--x-x----------------------------x-x---------------------------------------|

e|---------------------------------------------------------------------------|
B|---------------------------------------------------------------------------|
G|---------------------------------------------------------------------------|
D|-21-20-19-20-19-18-19-18-17-18-17-16-17-16-15-16-15-14-13-14-13-12-13-12-11|
A|---------------------------------------------------------------------------|
D|---------------------------------------------------------------------------|
all the way to the bottom
e|---------------------------------------------------------------------------|
B|---------------------------------------------------------------------------|
G|---------------------------------------------------------------------------|
D|-10-11-10-9-8-9-8-7-8-7-6-5-6-5-4-5-4-3-4-3-2-3-2-1-2-1-0------------------|
A|----------------------------------------------------------0-0-0------------|
D|---------------------------------------------------------------------------|

Suggest correction
Creating personal tab
Creating personal tab
You can edit any tab online and save it as your Personal.

You can edit, replace or remove any tab part or add personal notes – all changes will be seen only by you.

Personal tabs can be accessed anytime from any device, even offline.
Learn more »
Give kudos to tab author, rate the tab!
1 2 3 4 5
comments
print report bad tab
1 comment total.
0 reply
stke 2,645 Dec 04, 2006 08:02 PM

Awesome tab. I've been wondering how they do those awesome guitar riffs in this song. Check out my tab of "Spit Shine Your Black Clouds"!

guest
You may want to rate the tab now too:
select rating
Wanna post a correction for this tab? Suggest correction