Oops, an error
Loading. Please wait.

Goodbye Gemini bass

version 1
version 1

Whole song

Interactive

291 views 3 this week
no commentswrite comment
1 2 3 4 5
3 more votes to show rating
add to favorites
×
Save as Personal and add changes to this tab that will be seen only by you. Learn more ›
×
You can save this tab as Personal to edit and correct it or add notes. All changes will be seen only by you. Learn more »
launch autoscroll
font size
0
reset
guitar tuner
edit
Autoscroll
slow
fast
+/-
esc
set tempo
stop
Author
Tabbed by: 6METAL6BASSIST6
E-mail: petergriffinav@gmail.com

Tuning: EADG

G|9-----------------------8---9---11------9-------8-h-9-----------|
D|----------------------------------------------------------------|
A|7-------------------------------------------------------7-------|
E|----------------------------------------------------------------|

G|13--------------------------------------------------------------|
D|--------------------------------10----------------------10------|
A|11----------------------11--\-------------------11--------------|
E|----------------------------------------------------------------|

G|9-----------------------8-------9-------11------9---------------|
D|----------------------------------------------------------------|
A|----------------------------------------------------------------|
E|----------------------------------------------------------------|

G|13--------------------------------------------------------------|
D|--------------------------------10----------------------10------|
A|11----------------------11--\-------------------11--------------|
E|----------------------------------------------------------------|

G|9-----------------------9-------8-h-9---11------9---------------|
D|----------------------------------------------------------------|
A|----------------------------------------------------------------|
E|----------------------------------------------------------------|

G|13--------------------------------------------------------------|
D|--------------------------------10----------------------10------|
A|11----------------------11----------------------11--------------|
E|----------------12----------------------------------------------|

G|9-----------------------9-------9-------11------9---------------|
D|----------------------------------------------------------------|
A|----------------------------------------------------------------|
E|----------------------------------------------------------------|

G|13--------------------------------------------------------------|
D|--------------------------------10--------------10------10------|
A|11--------------11------11--\-----------------------------------|
E|--------------------------------8---------------8-------8-------|

0:30

G|----------------------------------------------------------------|
D|----------------------------------------------------------------|
A|4-----4-4---2---4-----4-4---2---4-----4-4---2---4-----4-4---2---|
E|----------------------------------------------------------------|

G|----------------------------------------------------------------|
D|----------------------------------------------------------------|
A|--------------------------------------------------------5-------|
E|5-----5-5---3---5-----5-5---3---5-----5-5---3---5---------------|

G|----------------------------------------------------------------|.
D|----------------------------------------------------------------|.
A|4-----4-4---2---4-----4-4---2---4-----4-4---2---4---------------|.
E|----------------------------------------------------0---2---4---|.
                                                                   . x3
G|----------------------------------------------------------------|.
D|----------------------------------------------------------------|.
A|--------------------------------------------------------5-------|.
E|5-----5-5---3---5-----5-5---3---5-----5-5---3---5---------------|.

G|----------------------------------------------------------------|
D|--------------------------------------------------------4---6---|
A|4-----4-4---2---4-----4-4---2---4-----4-4---2---4---7-----------|
E|----------------------------------------------------------------|

G|----------------------------------------------------------------|
D|7-----7-7---6---7-----7-7---6---7-----7-7---6---7---------------|
A|--------------------------------------------------------5-------|
E|----------------------------------------------------------------|

G|----------------------------------------------------------------|
D|--------------------------------------------------------4---6---|
A|4-----4-4---2---4-----4-4---2---4-----7-------------7-----------|
E|----------------------------------------------------------------|

G|----------------------------------------------------------------|
D|7-----7-7---6---7-----7-7---6---7---7---6---6---4---4-----------|
A|--------------------------------------------------------7-------|
E|----------------------------------------------------------------|

1:12

G|----------------------------------------------------------------|
D|------------11------9---11--\-----------------------------------|
A|4-------------------------------2-----------2---2---2---2-------|
E|----------------------------------------------------------------|

G|----------------------------------------------------------------|
D|------------7-\-6-----------------------------------------------|
A|--------------------7-------------------------------------------|
E|5-----------------------5-------4-----------4-----------4-------|

G|----------------------------------------------------------------|
D|----------------------------------------------------------------|
A|----------------------------------------------------------------|
E|5-----------5-----------5-----/-7-----------7-----------7-\-----|

G|----------------------------------------------------------------|
D|------------------------------/-6-------------------------------|
A|----------------------------------------------------------------|
E|4---4---4---4---4---4---4---4-----------------------------------|

1:25

G|----------------------------------------------------------------|
D|----------------------------------------------------------------|
A|----------------------------------------------------------------|
E|0-----------0-----------0---/---4-----------4-----------4-------|

G|----------------------------------------------------------------|
D|----------------------------------------------------------------|
A|4-----------4---4---------------4---7-------6-------4-----------|
E|--------------------------------------------------------4-------|

G|----------------------------------------------------------------|
D|----------------------------------------------------------------|
A|----------------------------------------------------------------|
E|5-----------5-------5---5-------4-----------4-------4---4-------|

G|----------------------------------------------------------------|
D|----------------------------------------------------------------|
A|4-----------4---4---------------4---7-------6-------4-----------|
E|--------------------------------------------------------4-------|

G|----------------------------------------------------------------|
D|----------------------------------------------------------------|
A|----------------------------------------------------------------|
E|0-----------0-------0---0---/---4-----------4-------4---4-------|

G|----------------------------------------------------------------|
D|----------------------------------------------------------------|
A|4-----------4---4---------------4---7-------6-------4-----------|
E|--------------------------------------------------------4-------|

G|----------------------------------------------------------------|
D|----------------------------------------------------------------|
A|----------------------------------------------------------------|
E|5-----------5-------5---5-------4-----------4-----------4-------|

G|----------------------------------------------------------------|
D|----------------------------------------------------------------|
A|4-----------4---4-----------2---2-----------7---7-6-----6-------|
E|----------------------------------------------------7-----------|

G|----------------------------------------------------------------|
D|----------------------------------------------------------------|
A|4-----------4---4-----------2---2-----------7---7-6-------------|
E|----------------------------------------------------7---7-------|

G|----------------------------------------------------------------|
D|----------------------------------------------------------------|
A|----------------------------------------------------------------|
E|----------------------------------------------------------------|

1:59

G|----------------------------------------------------------------|.
D|----------------------------------------------------------------|.
A|4-----4-4---2---4-----4-4---2---4-----4-4---2---4---------------|.
E|----------------------------------------------------0---2---4---|.
                                                                   . x2
G|----------------------------------------------------------------|.
D|----------------------------------------------------------------|.
A|--------------------------------------------------------5-------|.
E|5-----5-5---3---5-----5-5---3---5-----5-5---3---5---------------|.

G|----------------------------------------------------------------|
D|--------------------------------------------4---6-------9---6---|
A|4-----4-4---2---4-----7-----------------7-----------------------|
E|----------------------------------------------------------------|

G|----------------------------------------------------------------|
D|7-----7-7---6---7-----7-7---6---7-----7-7---6---7---------------|
A|--------------------------------------------------------5-------|
E|----------------------------------------------------------------|

G|----------------------------------------------------------------|
D|--------------------------------------/-6---6---9---9---6---6---|
A|4-----4-4---2---4-------7-------7-------------------------------|
E|----------------------------------------------------------------|

G|----------------------------------------------------------------|
D|7-----7-7---6---7-----7-7---6---7---7---6---6---4---4-----------|
A|--------------------------------------------------------7-------|
E|----------------------------------------------------------------|

2:27

G|----------------------------------------------------------------|
D|------------11------9---11--\-----------------------------------|
A|4-------------------------------2-----------2---2---2---2-------|
E|----------------------------------------------------------------|

G|----------------------------------------------------------------|
D|------------7-\-6-----------------------------------------------|
A|--------------------7-------------------------------------------|
E|5-----------------------5-------4-----------4-----------4-------|

G|----------------------------------------------------------------|
D|----------------------------------------------------------------|
A|----------------------------------------------------------------|
E|5-----------5-----------5-----/-7-----------7-----------7-\-----|

G|----------------------------------------------------------------|
D|------------------------------/-6-------------------------------|
A|----------------------------------------------------------------|
E|4---4---4---4---4---4---4---4-----------------------------------|

2:40

G|----------------------------------------------------------------|
D|----------------------------------------------------------------|
A|----------------------------------------------------------------|
E|0-----------0-----------0---/---4-----------4-----------4-------|

G|----------------------------------------------------------------|
D|----------------------------------------------------------------|
A|4-----------4---4---------------4---7-------6-------4-----------|
E|--------------------------------------------------------4-------|

G|----------------------------------------------------------------|
D|----------------------------------------------------------------|
A|----------------------------------------------------------------|
E|5-----------5-------5---5-------4-----------4-------4---4-------|

G|----------------------------------------------------------------|
D|----------------------------------------------------------------|
A|4-----------4---4---------------4---7-------6-------4-----------|
E|--------------------------------------------------------4-------|

G|----------------------------------------------------------------|
D|----------------------------------------------------------------|
A|----------------------------------------------------------------|
E|0-----------0-------0---0---/---4-----------4-------4---4-------|

G|----------------------------------------------------------------|
D|----------------------------------------------------------------|
A|4-----------4---4---------------4---7-------6-------4-----------|
E|--------------------------------------------------------4-------|

G|----------------------------------------------------------------|
D|----------------------------------------------------------------|
A|----------------------------------------------------------------|
E|5-----------5-------5---5-------4-----------4-----------4-------|

G|----------------------------------------------------------------|
D|----------------------------------------------------------------|
A|4-----------4---4-----------2---2-----------7---7-6-----6-------|
E|----------------------------------------------------7-----------|

G|----------------------------------------------------------------|
D|----------------------------------------------------------------|
A|4-----------4---4-----------2---2-----------7---7-6-------------|
E|----------------------------------------------------7---7-------|

G|----------------------------------------------------------------|
D|----------------------------------------------------------------|
A|----------------------------------------------------------------|
E|--------------------------------------------------------/-------|

3:14

G|----------------------------------------------------------------|
D|--------------------------------------------------------4---6---|
A|4-----4-4---2---4-----4-4---2---4-----4-4---2---4---7-----------|
E|----------------------------------------------------------------|

G|----------------------------------------------------------------|
D|7-----7-7---6---7-----7-7---6---7-----7-7---6---7---------------|
A|--------------------------------------------------------5-------|
E|----------------------------------------------------------------|

G|----------------------------------------------------------------|
D|--------------------------------4---6---7---11--11--9---6-------|
A|4-----4-4---2---4-------4---7-----------------------------------|
E|----------------------------------------------------------------|

G|----------------------------------------------------------------|
D|7-----7-7---6---7-----7-7---6-------7---6---6---4---4-----------|
A|--------------------------------------------------------7-------|
E|----------------------------------------------------------------|

3:27

G|----------------------------------------------------------------|
D|------------11------9---11--\-----------------------------------|
A|4-------------------------------2-----------2---2---2---2-------|
E|----------------------------------------------------------------|

G|----------------------------------------------------------------|
D|------------7-\-6-----------------------------------------------|
A|--------------------7-------------------------------------------|
E|5-----------------------5-------4-----------4-----------4-------|

G|----------------------------------------------------------------|
D|----------------------------------------------------------------|
A|----------------------------------------------------------------|
E|5-----------5-------5---5-----/-7-----------7---7---7---7-\-----|

G|----------------------------------------------------------------|
D|------------------------------/-6-------------------------------|
A|----------------------------------------------------------------|
E|4---4---4---4---4---4---4---4-----------------------------------|

3:41

G|----------------------------------------------------------------|
D|----------------------------------------------------------------|
A|----------------------------------------------------------------|
E|0-----------0-----------0---/---4-----------4-----------4-------|

G|----------------------------------------------------------------|
D|----------------------------------------------------------------|
A|4-----------4---4---------------4---7-------6-------4-----------|
E|--------------------------------------------------------4-------|

G|----------------------------------------------------------------|
D|----------------------------------------------------------------|
A|----------------------------------------------------------------|
E|5-----------5-------5---5-------4-----------4-------4---4-------|

G|----------------------------------------------------------------|
D|----------------------------------------------------------------|
A|4-----------4---4---------------4---7-------6-------4-----------|
E|--------------------------------------------------------4-------|

G|----------------------------------------------------------------|
D|----------------------------------------------------------------|
A|----------------------------------------------------------------|
E|0-----------0-------0---0---/---4-----------4-------4---4-------|

G|----------------------------------------------------------------|
D|----------------------------------------------------------------|
A|4-----------4---4---------------4---7-------6-------4-----------|
E|--------------------------------------------------------4-------|

G|----------------------------------------------------------------|
D|----------------------------------------------------------------|
A|----------------------------------------------------------------|
E|5-----------5-------5---5-------4-----------4-----------4-------|

G|----------------------------------------------------------------|
D|----------------------------------------------------------------|
A|4-----------4---4-----------2---2-----------7---7-6-----6-------|
E|----------------------------------------------------7-----------|

G|----------------------------------------------------------------|
D|--------------------------------------------7---6---4-----------|
A|4-----------4---4---------------7---6---4---------------7---6---|
E|----------------------------------------------------------------|

G|----------------------------------------------------------------|
D|----------------------------------------------------------------|
A|----4-----------------------------------------------------------|
E|----------------------------------------------------------------|

            
            
Suggest correction
Creating personal tab
Creating personal tab
You can edit any tab online and save it as your Personal.

You can edit, replace or remove any tab part or add personal notes – all changes will be seen only by you.

Personal tabs can be accessed anytime from any device, even offline.
Learn more »
Give kudos to tab author, rate the tab!
1 2 3 4 5
comments
print report bad tab
guest
You may want to rate the tab now too:
select rating
Wanna post a correction for this tab? Suggest correction