Oops, an error
Loading. Please wait.

Goodbye Gemini Tab

version 1
version 1

Intro

  • All adapted from the flute in the intro don't worr... Show more

Interactive

37 views 1 this week
no commentswrite comment
1 2 3 4 5
3 more votes to show rating
add to favorites
launch autoscroll
font size
0
reset
how to read this tab
guitar tuner
Autoscroll
slow
fast
+/-
esc
set tempo
stop
Help us to improve Ultimate-Guitar.com Take our survey!
×
Author
About this tab version
All adapted from the flute in the intro don't worry about capo or anything although distortion makes it sound nice and creepy. Was this info helpful? Yes No
[Intro]

e|----------------------------------------------------------|
B|-----9------------------------9---------------------------|
G|--6----11--9--8-8--5-6-8-5-6-----11-9-8-8-----------------|
D|----------------------------------------------------------|
A|----------------------------------------------------------|
E|----------------------------------------------------------|

e|----------------------------------------------------------|
B|---------------------------9------------------------------|
G|--5-6-8-5-6-5--1-----1--6----11--9-8--8-6-----------------|
D|------------------4---------------------------------------|
A|----------------------------------------------------------|
E|----------------------------------------------------------|

e|--------------------------|
B|---9----------------------|
G|-----11-9-6-----2-2-1-2---|
D|--------------------------|
A|--------------------------|
E|--------------------------|
Suggest correction
Give kudos to tab author, rate the tab!
1 2 3 4 5
comments
print report bad tab
guest
You may want to rate the tab now too:
select rating
Wanna post a correction for this tab? Suggest correction