Oops, an error
Loading. Please wait.

Hop Toad Tab

813 views 1 this week
no commentswrite comment
1 2 3 4 5
1 last vote to show rating
add to favorites
launch autoscroll
font size
0
reset
how to read this tab
guitar tuner
Autoscroll
slow
fast
+/-
esc
set tempo
stop
Help us to improve Ultimate-Guitar.com Take our survey!
×
Difficulty
novice
----------------------------------------------------------------------------
                         Hop Toad - Blood Ceremony
----------------------------------------------------------------------------
Tabbed by: JIC
Email: phantom-is@hotmail.co.uk

http://www.myspace.com/bloodceremony

Tuning: Standard

Intro (0:06)

e|----------------------------------| <--x4
B|----------------------------------|
G|-4------5------4------4-----------|
D|-4------5------4------4--3------3-|
A|-2------3------2------2--3------3-|
E|-------------------------1------1-|

(1:00)

e|---------------------------------|
B|---------------------------------|
G|---------------------------------|
D|---------------------------------|
A|-2-3-2-3-2-3-2-3-2-3-2-3-2-0-----|
E|-----------------------------3-2-|

Verse

e|------------------------| <--x10
B|------------------------|
G|---------------5-5--4-5-|
D|---2------5----5-5--4-5-|
A|-----2------5--3-3--2-3-|
E|-0------3---------------|

Break

e|---------------------------------| <--x4
B|---------------------------------|
G|---------------------------4-5-4-|
D|-2------2------5--5--------4-5-4-|
A|-2--3~--2--2~--5--5--------2-3-2-|
E|-0------0------3--3--2~----------|

Verse

Break

Verse

Break

'In You Go, Little Green Friend' (4:28)

e|------------------|
B|------------------|
G|------------------|
D|------------------|
A|-3----2-----------|
E|-----------3----2-|

e|----------------------| <--x4
B|----------------------|
G|----------------------|
D|----------------------|
A|-----7----------------|
E|-0-0----0-7-6--5--0-3-|

e|----------------------| <--x2
B|----------------------|
G|----------------------|
D|-----7----------------|
A|-0-0----0-7-6--5--0-3-|
E|----------------------|

e|----------------------| <--x2
B|----------------------|
G|----------------------|
D|----------------------|
A|-----7----------------|
E|-0-0----0-7-6--5--0-3-|

e|----3----2--23h2p-2-------|
B|----3----3----------3-0-3-|
G|----4----2----------------|
D|-2--5----0----------------|
A|-2--5---------------------|
E|-0--3---------------------|



************************************

| /   slide up
| \   slide down
| h   hammer-on
| p   pull-off
| ~   vibrato
| +   harmonic
| x   Mute note
| b   Bend
| pb  Pre-bend
| br  Bend release
| pbr Pre-bend release
| brb Bend release bend

************************************
Suggest correction
Give kudos to tab author, rate the tab!
1 2 3 4 5
comments
print report bad tab
guest
You may want to rate the tab now too:
select rating
Wanna post a correction for this tab? Suggest correction