Oops, an error
Loading. Please wait.

Hymn To Pan Tab

901 views 3 this week
no commentswrite comment
1 2 3 4 5
please rate
add to favorites
launch autoscroll
font size
0
reset
how to read this tab
guitar tuner
Autoscroll
slow
fast
+/-
esc
set tempo
stop
Help us to improve Ultimate-Guitar.com Take our survey!
×
Difficulty
intermediate
----------------------------------------------------------------------------
                      The Rare Lord - Blood Ceremony
----------------------------------------------------------------------------
Tabbed by: JIC
Email: phantom-is@hotmail.co.uk

http://www.myspace.com/bloodceremony

Tuning: Standard

Intro

e|-----------------------------------------------------------------|
B|-----------------------------------------------------------------|
G|-----------------------------------------------------------------|
D|-2------2------2------2------2------2------2------2------2-----2-|
A|-2------2------2------2------2------2------2------2------2-----2-|
E|-0------0------0------0------0------0------0------0------0-----0-|

e|---------------------------------------------------|
B|---------------------------------------------------|
G|--------------------4-24h2p-02h0p------------------|
D|-2-4-5-4-4/7-5-4-2----------------45h4p-2-0-2----0-|
A|-----------------------------------------------2---|
E|---------------------------------------------------|

e|---------------------------------------------|
B|---------------------------------------------|
G|-------------------4-2-0-2-0-----------------|
D|-2-4-5-4-4/7-5-4-2-----------4--2-0----------|
A|------------------------------------2-1-0----|
E|-------------------------------------------3-|

e|---------------------------------------------------|
B|---------------------------------------------------|
G|----7/9-9-9--4-5--4-------7/9-9-9--4-5-------------|
D|-2--7/9-9-9--4-5--4----2--7/9-9-9--4-5-5-45h4p5h-0-|
A|-2--5/7-7-7--2-3--2----2--5/7-7-7--2-3-------------|
E|-0---------------------0---------------------------|

e|--------------------| <--x8  e|-----------------|
B|--------------------|        B|-----------------|
G|----7/9-9-9--4-5--4-|        G|-5--5------------|
D|-2--7/9-9-9--4-5--4-|        D|-5--5------------|
A|-2--5/7-7-7--2-3--2-|        A|-3--3--2-3-2-3-2-|
E|-0------------------|        E|-----------------|

e|--------------------| <--x8  e|-------------------|
B|--------------------|        B|-------------------|
G|----7/9-9-9--4-5--4-|        G|-5--5--------------|
D|-2--7/9-9-9--4-5--4-|        D|-5--5--------------|
A|-2--5/7-7-7--2-3--2-|        A|-3--3--2-3-0-------|
E|-0------------------|        E|-------------2-3-0-|

e|------------------------------------------------------------|
B|------------------------------------------------------------|
G|-------------5--5---------------------------5--5------------|
D|-2--2--5--4--5--5---------------2--2--5--4--5--5------------|
A|-2--2--5--4--3--3--2-3-2-3-2----2--2--5--4--3--3--2-3-2-3-2-|
E|-0--0--3--2---------------------0--0--3--2------------------|

e|------------------------------------------------------------------|
B|------------------------------------------------------------------|
G|-------5--4------------------------------------5--5---------------|
D|-2--2--5--4--5--5------------------2--2--5--4--5--5---------------|
A|-2--2--3--2--5--5--0-2-3--2--------2--2--5--4--3--3--0-2-3--2-----|
E|-0--0--------3--3-----------3-2----0--0--3--2-----------------3-2-|

e|---------------------------------------------------|
B|---------------------------------------------------|
G|----7/9-9-9--4-5--4-------7/9-9-9--4-5-------------|
D|-2--7/9-9-9--4-5--4----2--7/9-9-9--4-5-5-45h4p5h-0-|
A|-2--5/7-7-7--2-3--2----2--5/7-7-7--2-3-------------|
E|-0---------------------0---------------------------|

e|--------------------| <--x8  e|-------------------|
B|--------------------|        B|-------------------|
G|----7/9-9-9--4-5--4-|        G|-5--5--------------|
D|-2--7/9-9-9--4-5--4-|        D|-5--5--------------|
A|-2--5/7-7-7--2-3--2-|        A|-3--3--2-3-0-------|
E|-0------------------|        E|-------------2-3-0-|

e|------------------------------------------------------------|
B|------------------------------------------------------------|
G|-------------5--5---------------------------5--5------------|
D|-2--2--5--4--5--5---------------2--2--5--4--5--5------------|
A|-2--2--5--4--3--3--2-3-2-3-2----2--2--5--4--3--3--2-3-2-3-2-|
E|-0--0--3--2---------------------0--0--3--2------------------|

e|------------------------------------------------------------------|
B|------------------------------------------------------------------|
G|-------5--4------------------------------------5--5---------------|
D|-2--2--5--4--5--5------------------2--2--5--4--5--5---------------|
A|-2--2--3--2--5--5--0-2-3--2--------2--2--5--4--3--3--0-2-3--2-----|
E|-0--0--------3--3-----------3-2----0--0--3--2-----------------3-2-|

e|-------------------------------------------------|
B|-------------------------------------------------|
G|-------------------------------------------------|<
D|-------------------------------------45h4p-------| \
A|-----------------75p7h5p-------------------57h5p-|  \
E|-0--0-0--0-0--0-----------0--0-0--0--------------|   \
                                                        \
e|--------------------------------------------------|<---x5
B|--------------------------------------------------|
G|--------------------------------------------------|
D|--------------------------79h7p-57h5p-45h4p-------|
A|-----------------75p7h5p--------------------57h5p-|
E|-0--0-0--0-0--0-----------------------------------|

e|---------------------------------------|
B|---------------------------------------|
G|---------------------------------------|
D|-2--------2--------2--------2--------2-|
A|-2--------2--------2--------2--------2-|
E|-0--------0--------0--------0--------0-|

e|------------------------------------------------------------------------|
B|------------------------------------------------------------------------|
G|------------------------------------------------------------------------|
D|-2-----2--------------------------------2-----2-------------------------|
A|----2-----2--1----1---1--1/2--2------------2-----2--1--1-12h1p----------|
E|-----------------------------------0----------------------------2-23h2p-|

(Keep playing in the background until the solo stops) 

e|-----------------------------------------| <--x2
B|-----------------------------------------|
G|-4-2-0-2--------------4-2-0-2------------|
D|----------4-5--0-2-------------5-4-2-0-2-|
A|-----------------------------------------|
E|-----------------------------------------|




************************************

| /   slide up
| \   slide down
| h   hammer-on
| p   pull-off
| ~   vibrato
| +   harmonic
| x   Mute note
| b   Bend
| pb  Pre-bend
| br  Bend release
| pbr Pre-bend release
| brb Bend release bend

************************************
Suggest correction new What's this?
You can suggest a correction to this tab. Community and Mods will review your correction and vote to approve or reject it.
comments
We did not receive enough feedback on this tab! Please rate:
print report bad tab
1 2 3 4 5
guest
You may want to rate the tab now too:
select rating
Please do not post tabs as comments. Select "correction" instead!