Oops, an error
Loading. Please wait.

Im Coming With You Tab

777 views 1 this week
1 commentread comment
1 2 3 4 5
please rate
add to favorites
launch autoscroll
font size
0
reset
how to read this tab
guitar tuner
Autoscroll
slow
fast
+/-
esc
set tempo
stop
Help us to improve Ultimate-Guitar.com Take our survey!
×
Difficulty
intermediate
----------------------------------------------------------------------------
                   I'm Coming With You - Blood Ceremony
----------------------------------------------------------------------------
Tabbed by: JIC
Email: phantom-is@hotmail.co.uk

http://www.myspace.com/bloodceremony

Tuning: Standard

Intro

e|-------------| <--x4
B|-------------|
G|-------------|
D|-2----2----8-|
A|-2----2----8-|
E|-0----0----6-|

Verse

e|-------------------------------------------------| <--x5
B|-------------------------------------------------|
G|----7-/9-9--------------------7-/9-9-------------|
D|-2--7-/9-9--2--5-5-7-/9-5--2--7-/9-9--2--5-------|
A|-2--5-/7-7--2--5-5-7-/9-5--2--5-/7-7--2--5-------|
E|-0----------0--3-3-5-/7-3--0----------0--3-7-6-5-|

Break

e|------------------------------------------------|
B|------------------------------------------------|
G|---------------------------------------------12-|
D|-5---------5--2------5----5-45h4p------------12-|
A|-5---------5--2------5------------5---5-7----10-|
E|-3----7-6--3--0------3--------------7-----------|

Verse

Break

(1:57)

e|----------------------------------------------| <--x2
B|----------------------------------------------|
G|--------------------5-------------------------|
D|-5-7----8----5-7----5----5-7----8----5-7------|
A|-5-7----8----5-7----3----5-7----8----5-7------|
E|-3-5----6----3-5---------3-5----6----3-5----5-|

e|---------------------------| <--x3
B|---------------------------|
G|---------------------------|
D|---------------------------|
A|----7--7-5---5----5--------|
E|-0---------7----6----3-5-3-|

e|------------------------------|
B|------------------------------|
G|------------------------------|
D|----------------------57h5p7h-|
A|----7--7-5----------7---------|
E|-0---------7-6-5-3------------|

e|---------------------------| <--x8
B|---------------------------|
G|---------------------------|
D|---------------------------|
A|----7--7-5---5----5--------|
E|-0---------7----6----3-5-3-|

e|-----------------------| <--x4
B|-----------------------|
G|----9--9-\7/9-7-7------|
D|-2--9--9-\7/9-7-7-8----|
A|-2--7--7-\5/7-5-5-8----|
E|-0----------------6--3-|

e|-------------| <--x4
B|-------------|
G|-------------|
D|-2----2----8-|
A|-2----2----8-|
E|-0----0----6-|

Verse

Break

Outro

e|--------------------------| <--x2
B|---------5-5--------------|
G|---0-2-3--------0-2-3-2-0-|
D|-2------------2-----------|
A|--------------------------|
E|--------------------------|


************************************

| /   slide up
| \   slide down
| h   hammer-on
| p   pull-off
| ~   vibrato
| +   harmonic
| x   Mute note
| b   Bend
| pb  Pre-bend
| br  Bend release
| pbr Pre-bend release
| brb Bend release bend

************************************
comments
We did not receive enough feedback on this tab! Please rate:
print report bad tab
1 2 3 4 5
1 comment total.
0 reply
Ridder Lugtepik 790 wrote on April 26 2012, 02:37 pm

This is a great tab, mostly accurate, but the verse and break parts are wrong.
They should be:

e|---------------------------------------------| x5
B|--------------------------------------------|
G|----7-/9-9-----------------7-/9-9-----------|
D|-2--7-/9-9---5-5-7-/9---2--7-/9-9---5-------|
A|-2--5-/7-7---5-5-7-/9---2--5-/7-7---5-------|
E|-0-----------3-3-5-/7---0-----------3-7-6-5-|

Break
e|------------------------------------------------|
B|------------------------------------------------|
G|---------------------------------------------12-|
D|-5---------5--2------5----5-4h5p4------------12-|
A|-5---------5--2------5------------5---5-7----10-|
E|-3-----6-5-3--0------3--------------7-----------|


Thanks for the tab anyway!

I want to post or [tab]
guest
You may want to rate the tab now too:
select rating
Please do not post tabs as comments. Select "correction" instead!