Oops, an error
Loading. Please wait.

The Great God Pan Tab

version 1
version 1

Whole song

Interactive

847 views 1 this week
no commentswrite comment
1 2 3 4 5
please rate
add to favorites
launch autoscroll
font size
0
reset
how to read this tab
guitar tuner
Autoscroll
slow
fast
+/-
esc
set tempo
stop
Help us to improve Ultimate-Guitar.com Take our survey!
×
Author
Hello! Here is a nice song.
It is this one:

The Great God Pan
Blood Ceremony
Living With The Ancients (2011)
Words & Music by Sean Kennedy and Blood Ceremony

Tabbed by Mads Yde

Intro:
E----|---------|----------|------------|---------|----------|
B----|---------|----------|------------|---------|----------|
G----|---------|----------|------------|---------|----------|
D----|-4---4---|----------|------------|-4---4---|----------|
A----|-4---4---|----------|------------|-4---4---|----------|
E-0h-|-2-0h2---|----------|---------0h-|-2-0h2---|----------|
           let ring                          let ring

E----------|---------|---------|----------|---------|----------|
B----------|---------|---------|----------|---------|----------|
G----------|---------|---------|----------|---------|----------|
D----------|-4---4---|---------|----------|-4---4---|-4--------|
A----------|-4---4---|---------|----------|-4---4---|-4--------|
E-------0h-|-2-0h2---|---------|-------0h-|-2-0h2---|-2--------|
                 let ring                             let ring

Riff 2:
E-----------------|-----------------|-----------------|-----------------|
B-----------------|-----------------|-----------------|-----------------|
G-----------------|-----------------|-----------------|-7-7-7-7-7-7-7-7-|
D-4-4-4-4-4-4-4-4-|-7-7-7-7-7-7-7-7-|-9-9-9-9-9-9-9-9-|-7-7-7-7-7-7-7-7-|
A-4-4-4-4-4-4-4-4-|-7-7-7-7-7-7-7-7-|-9-9-9-9-9-9-9-9-|-5-5-5-5-5-5-5-5-|
E-2-2-2-2-2-2-2-2-|-5-5-5-5-5-5-5-5-|-7-7-7-7-7-7-7-7-|-----------------|
  PALM MUTE IF YOU FEEL LIKE IT :)    AHHH AHHHH AHHHH AHHHHH AHHHHHHH!


Riff 3:
E----------------|---------------|----------------|---------------|
B----------------|---------------|----------------|---------------|
G----------------|---------------|----------------|---------------|
D-4--4---4--4----|-4--4---7-9-7--|-4--4---4--4----|-4--4---4-5-4--|
A-4--4---4--4----|-4--4---7-9-7--|-4--4---4--4----|-4--4---4-5-4--|
E-2--2-0h2--2-0h-|-2--2-0-5-7-5--|-2--2-0h2--2-0h-|-2--2-0-2-3-2--|
              *this isn't longer than the first


Riff 4:
E----------------------------|---------------------|
B/7--5-4-5--4-3-4--3-2-3-2~--|---------------------|
G----------------------------|-4-2-4b-4-2-4-2-4-2--|
D----------------------------|---------------------|
A----------------------------|---------------------|
E----------------------------|---------------------|

E------------------|--------------------|
B---------2-2-b----|--------------------|
G---------2-2-b----|--------------------|
D-4~-2-4--------4~-|-4-2----------------|
A------------------|-----3-2-0-2-3-2----|
E------------------|-----------------2~-|


Riff 3.5
E----------------|---------------|----------------|---------------|
B----------------|---------------|----------------|---------------|
G----------------|---------------|----------------|---------------|
D-4--4---4--4----|-4--4---7-9-7--|-4--4---4--4----|-4--4---4-5-4--|
A-4--4---4--4----|-4--4---7-9-7--|-4--4---4--4----|-4--4---4-5-4--|
E-2--2-0h2--2-0h-|-2--2-0-5-7-5--|-2--2-0h2--2-0h-|-2--2-0-2-3-2--|

E----------------|---------------|---------------|-------------|
B----------------|---------------|---------------|-------------|
G----------------|---------------|---------------|-------------|
D-4--4---4--4----|-4--4---7-9-7--|-4--4---4--4---|-------------|
A-4--4---4--4----|-4--4---7-9-7--|-4--4---4--4---|-2-3-3---2---|
E-2--2-0h2--2-0h-|-2--2-0-5-7-5--|-2--2-0h2--2-0-|-------5---2-|


Riff 5:
E------------------|------------------|------------------|------------------|
B------------------|------------------|------------------|------------------|
G------------------|------------------|------------------|------------------|
D-4----------------|-4----------------|-4----------------|-4----------------|
A-4---2-3-3---2----|-4---2-3-3---2----|-4---2-3-3---2----|-4---2-3-3---2----|
E-2---------5---2--|-2---------5---2--|-2---------5---2--|-2---------5---2--|


Riff 6:
E---------------|---------------|
B---------------|---------------|
G---------------|-4/5-5---------|
D-4--4---4--4---|-4/5-5--4/5-5--|
A-4--4---4--4---|-2/3-3--4/5-5--|
E-2--2-0h2--2-0-|--------2/3-3--|


Break
E--------------|-------------|
B--------------|-------------|
G--------------|-------------|
D-4------------|-------------|
A-4------------|-------------|
E-2------------|-------------|
  let ring!!

He later adds this:
E----------------|
B----------------|
G----------------|
D---------4-4----|
A---------4-4----|
E-0-0-0-0-2-2----|
  pm-----


Riff 7:
E---------------|----------------|
B---------------|----------------|
G---------------|-7--7-7--6--6-6-|
D-4--4-4-2--2-2-|-7--7-7--6--6-6-|
A-4--4-4-2--2-2-|-5--5-5--4--4-4-|
E-2--2-2-0--0-0-|----------------|
  F#m    E        D       C#

and later add this
E---------------|--------------------|
B---------------|--------------------|
G---------------|-7--7-7--6----------|
D-4--4-4-2--2-2-|-7--7-7--6----------|
A-4--4-4-2--2-2-|-5--5-5--4--4-2---2-|
E-2--2-2-0--0-0-|----------------5---|
  F#m    E        D       C#

Outro:
E---------------|----------------|
B---------------|----------------|
G---------------|----------------|
D-4--4-4-2--2-2-|-4--4-4--7-9-7--|
A-4--4-4-2--2-2-|-4--4-4--7-9-7--|
E-2--2-2-0--0-0-|-2--2-2--5-7-5--|
  F#m    E        F       A B A


End:
E----------------|
B----------------|
G----------------|
D-4--------------|
A-4--------------|
E-2--------------|
  Fm
Song structure
Intro x1
Riff 2 x4
Riff 3 x1
Riff 4 x1
Riff 3.5 x2
Riff 5 x4
Riff 6 x4
Riff 3 x1
Riff 4 x1
Riff 3.5 x2
Riff 5 x4
Riff 6 x3
Break x a lot of times, just play along with the song
Riff 7 x a hell lot of times -||-
Outro x2
End x1

Tabbed by Mads Yde
Comments and corrections are welcome, but please don't act like a d**k. If you 
feel an urge to do this, you should have made your own contribution of this tab.
Enjoy & please rate!
Suggest correction
What's this?
You can suggest a correction to this tab. Community and Mods will review your correction and vote to approve or reject it.
comments
We did not receive enough feedback on this tab! Please rate:
print report bad tab
1 2 3 4 5
guest
You may want to rate the tab now too:
select rating
Please do not post tabs as comments. Select "correction" instead!