Oops, an error
Loading. Please wait.

The Rare Lord Tab

1,524 views 1 this week
no commentswrite comment
1 2 3 4 5
please rate
add to favorites
launch autoscroll
font size
0
reset
how to read this tab
guitar tuner
Autoscroll
slow
fast
+/-
esc
set tempo
stop
Help us to improve Ultimate-Guitar.com Take our survey!
×
Difficulty
novice
----------------------------------------------------------------------------
                      The Rare Lord - Blood Ceremony
----------------------------------------------------------------------------
Tabbed by: JIC
Email: phantom-is@hotmail.co.uk

http://www.myspace.com/bloodceremony

This isn't 100% right, there are little hammer on and pull off sections that are 
quite difficult to figure out but the rest is perfect.

Tuning: Standard

Intro - x2

e|-----------------------------------------------------------------|
B|-----------------------------------------------------------------|
G|----------------------5------4----------------------5------------|
D|-7----7------2------5---5------------------7------5---5----------|
A|-7----7----2---2--3--------2---23h2p-----7---7--3----------5---2-|
E|-5----5--0---------------------------3-5-----------------3---0---|

Verse - x5

e|---------------------------------------------|
B|---------------------------------------------|
G|-------------9----9-9----5----5-5----7--8--9-|
D|-7----7-7--7-9----9-9----5----5-5----7--8--9-|
A|-7----7-7--7-7----7-7----3----3-3----5--6--7-|
E|-5----5-5--5---------------------------------|

e|-------------------------------------------------|
B|-------------------------------------------------|
G|-------------9----9-9----5----5-5----------------|
D|-7----7-7--7-9----9-9----5----5-5----------------|
A|-7----7-7--7-7----7-7----3----3-3----------------|
E|-5----5-5--5-------------------------0--8--78h7p-|

Instrumental Chorus - x2 (Don't play last note on second time)

e|-------------------------------------------------------|
B|-------------------------------------------------------|
G|-------------------------------------------------------|
D|--------------------5-4-2----------------3-23h2p-------|
A|--------------------------3----2-3-5-3-2---------3-2-0-|
E|-5----5--3-5-3-0---------------------------------------|

e|-------------------------------------------|
B|-------------------------------------------|
G|-------------------------------------------|
D|-------------------------------------------|
A|-0----2-3----3/5----3-2-0-2-02h0p----------|
E|----------------------------------3/5----0-|

Verse - x4

Instrumental Chorus - x2

Break

e|--------------------------------------|
B|--------------------------------------|
G|--------------------------------------|
D|--------------------------------------|
A|----------5-7-8-7---5-----------------|
E|-5--5-7-8---------8---78h7p-3----8--7-|

e|------------------------------------------|
B|------------------------------------------|
G|------------------------------------------|
D|----------------------7-5-----------------|
A|----------5-7-8-7---5-----78h7p-----------|
E|-5--5-7-8---------8-------------8--10-8-7-|

e|--------------------------------------|
B|--------------------------------------|
G|--------------------------------------|
D|--------------------------------------|
A|----------5-7-8-7---5-----------------|
E|-5--5-7-8---------8---78h7p-3----8--7-|

e|------------------------------------------|
B|------------------------------------------|
G|------------------------------------------|
D|----------------------7-5-----------------|
A|----------5-7-8-7---5-----78h7p-----------|
E|-5--5-7-8---------8-------------8--10-8-7-|

e|----------------------------------------| <-- x12
B|----------------------------------------|
G|-----------------------------------5--4-|
D|-----------------------------------5--4-|
A|-----------------------------------3--2-|
E|-5-5--03h5h-5-5--03h5h-5-5--03h5h-------|

e|-----------------------------------------| <-- x4
B|-----------------------------------------|
G|-----------5-4--4-4---10-9---10-9--------|
D|-7--7-7----5-4--4-4---10-9---10-9----5-7-|
A|-7--7-7----3-2--2-2----8-7----8-7----5-7-|
E|-5--5-5------------------------------3-5-|

E|-3~-|

e|----------------------| <-- x4
B|----------------------|
G|----------------------|
D|-7--7----3--3----2--2-|
A|-7--7----3--3----2--2-|
E|-5--5----1--1----0--0-|

(In the background)
A|-23h2p3h2p3h2p3h2p3h2p3h2p3h2p3h-|

Intro - x2

or

e|-----------------------------------------------------------------------|
B|-----------------------------------------------------------------------|
G|-----------------------------------------------------------------------|
D|---------------------------------------------------------------------7-|
A|----7-8-7--7-8------------7--------------------------------7---------7-|
E|-5-------------8--10--8-7---78h7p-3-5----8-7-5-7-8-10--8-7---78h7p-3-5-|




************************************

| /   slide up
| \   slide down
| h   hammer-on
| p   pull-off
| ~   vibrato
| +   harmonic
| x   Mute note
| b   Bend
| pb  Pre-bend
| br  Bend release
| pbr Pre-bend release
| brb Bend release bend

************************************


Suggest correction
Give kudos to tab author, rate the tab!
1 2 3 4 5
comments
print report bad tab
guest
You may want to rate the tab now too:
select rating
Wanna post a correction for this tab? Suggest correction