Oops, an error
Loading. Please wait.

Hell On Heels Tab

719 views 9 this week
no commentswrite comment
1 2 3 4 5
please rate
add to favorites
launch autoscroll
font size
0
reset
how to read this tab
guitar tuner
Autoscroll
slow
fast
+/-
esc
set tempo
stop
Help us to improve Ultimate-Guitar.com Take our survey!
×
Author
I hope the rhythms are tabbed out right if not you can figure it out right? C:

Intro
E---------------------------|----|
B---------------------------|----|
G---------------------------|----|
D------------------------5--|----|
A-77-33-55-xxxx-77-33-55-3-5|-3--|
E-55-11-33-xxxx-55-11-33---3|-1--|
  ^-----------X2-----------------| end

Verse
E----------------|
B----------------|
G----------------|
D----------------|
A-3----7----5----|
E-1----5----3----|

Chorus
E----------------------------|
B----------------------------|
G----------------------------|
D------------------------5---|
A-77-33-55-xxxx-77-33-55-3-5-|
E-55-11-33-xxxx-55-11-33---3-|

Pre-verse
E----------------------|
B----------------------|
G----------------------|
D----------------------|
A-7----3----5---10-10--|
E-5----1----3----8--7--|

Interlude
E-888888888-1313131313131313-1212121212121212-1010101010101010-|
B--------------------------------------------------------------|
G--------------------------------------------------------------|
D--------------------------------------------------------------|
A--------------------------------------------------------------|
E--------------------------------------------------------------|
the interlude is tremelo picked so I'm not sure if this is how many times it's 
actually being picked but you can figure it out C:
Suggest correction
Give kudos to tab author, rate the tab!
1 2 3 4 5
comments
print report bad tab
guest
You may want to rate the tab now too:
select rating
Please do not post tabs as comments. Select "correction" instead!