Oops, an error
Loading. Please wait.

The Untouchables Tab

896 views 1 this week
no commentswrite comment
1 2 3 4 5
1 last vote to show rating
add to favorites
launch autoscroll
font size
0
reset
how to read this tab
guitar tuner
Autoscroll
slow
fast
+/-
esc
set tempo
stop
Help us to improve Ultimate-Guitar.com Take our survey!
×
Author
Difficulty
Tuning
novice
D A D G B E
The Untouchables, Like my other BOTDF tabs done in 5 minuets
and even if they use standard i use Drop D cuz... its BOTDF...

Intro
E-----
B-----
G-----
D-2-2-
A-2-2-
D-2-2-

Intro 2nd peice (isnt tabbed exactly but gives you and idea of how its done)
E------------|
B------------|
G------------|
D-222223-2-2-|
A-222223-2-2-|
D-222223-2-2-|
  ......

Verse when Jayy Sings (hopfully tabbed right of not these are still the chords used)
E----------------------------|
B----------------------------|
G----------------------------|
D-2-2-2-5-5-5-10-10-10-9-9-9-|
A-2-2-2-5-5-5-10-10-10-9-9-9-|
D-2-2-2-5-5-5-10-10-10-9-9-9-|

Chorus (how i play it but same chords atleast)
E------------------|
B------------------|
G------------------|
D-2---5---10---9---|
A-2---5---10---9---|
D-2---5---10---9---|

EASy
didnt get the solo
if i figure it out put it on later (not that it should be hard -.-)
Suggest correction
Give kudos to tab author, rate the tab!
1 2 3 4 5
comments
print report bad tab
guest
You may want to rate the tab now too:
select rating
Wanna post a correction for this tab? Suggest correction