Oops, an error
Loading. Please wait.

Unforgiven Bass Tab

3,013 views 6 this week
no commentswrite comment
1 2 3 4 5
1 last vote to show rating
add to favorites
launch autoscroll
font size
0
reset
guitar tuner
Autoscroll
slow
fast
+/-
esc
set tempo
stop
Help us to improve Ultimate-Guitar.com Take our survey!
×
Difficulty
Tuning
intermediate
D A D G B E
- Blood on the dance floor
- Unforgiven 
- Tuning is Drop D - D,A,D,G
- THIS IS 100% CORRECT AND WHAT AUSSIE PLAYS LIVE.

Intro 
G|---------------------------|
D|---------------------------|
A|---------------------------|
D|----------3-3--------------|

Verse x4 (its an offtime beat so follow the music)
G|----------------------------------------|
D|----------------------------------------|
A|----------------------------------333-5-|
D|-0-0-0-0-0-0-0-0-0-0-0-0-0-0-0-0--------|

Chorus x4
G|-----------------------------------------|
D|-----------------------------------------|
A|----------111111-33----------333333-55---|
D|-00000000-----------33333333-------------|


Verse X1(its an offtime beat so follow the music)
G|----------------------------------------|
D|----------------------------------------|
A|----------------------------------333-5-|
D|-0-0-0-0-0-0-0-0-0-0-0-0-0-0-0-0--------|

Verse x1 THEN BREAK
G|-----------------------------------|
D|-----------------------------------|
A|-----------------------------------|
D|-0-0-0-0-0-0-0-0-0-0-0-0-0-0-0-0-X-|

Verse x2(its an offtime beat so follow the music)
G|----------------------------------------|
D|----------------------------------------|
A|----------------------------------333-5-|
D|-0-0-0-0-0-0-0-0-0-0-0-0-0-0-0-0--------|

Chorus x4
G|-----------------------------------------|
D|-----------------------------------------|
A|----------111111-33----------333333-55---|
D|-00000000-----------33333333-------------|

BRIDGE
G|-------------------------------------------------------------|
D|-------------------------------------------------------------|
A|-----1-----3-----1-----3---------11111111--------33333333----|
D|--0-----0-----0-----0----00000000--------00000000------------|

G|-----------------------------------------|
D|-----------------------------------------|
A|---------11111111--------33333333-3/12---|
D|-00000000--------00000000----------------|

Chorus x4
G|-----------------------------------------|
D|-----------------------------------------|
A|----------111111-33----------333333-55---|
D|-00000000-----------33333333-------------|

OUTRO x2
G|----------------------------------------|
D|----------------------------------------|
A|----------------------------------333-5-|
D|-0-0-0-0-0-0-0-0-0-0-0-0-0-0-0-0--------|
Suggest correction
Give kudos to tab author, rate the tab!
1 2 3 4 5
comments
print report bad tab
guest
You may want to rate the tab now too:
select rating
Wanna post a correction for this tab? Suggest correction