Oops, an error
Loading. Please wait.

You Are The Heart Tab

1,501 views 1 this week
1 commentread comment
1 2 3 4 5
x 3
add to favorites
launch autoscroll
font size
0
reset
how to read this tab
guitar tuner
Autoscroll
slow
fast
+/-
esc
set tempo
stop
Help us to improve Ultimate-Guitar.com Take our survey!
×
Author
Difficulty
novice
done in 5 minuets, like all my other BOTDF tabs wooooo
You Are The <3
probably not tabbed right but these are the chords so you figure it out

Chorus
E---------------------------------|
B---------------------------------|
G---------5-5-5-5---------7-7-7-7-|
D-2-2-2-2-5-5-5-5-5-5-5-5-7-7-7-7-|
A-2-2-2-2-3-3-3-3-5-5-5-5-5-5-5-5-|
E-0-0-0-0---------3-3-3-3---------|

Verse Guitar 1
E-------------------------------------|
B-------------------------------------|
G-------------------------------------|
D----------55555555----------77777777-|
A-22222222-33333333-55555555-55555555-|
E-00000000----------33333333----------|

Verse Guitar 2
E-------------------------------------|
B-------------------------------------|
G-9999-----5555--------------7777-----|
D-------------------5555--------------|
A-7777-----3333--------------5555-----|
E-------------------3333--------------|

In-between riff
E-------------|
B-------------|
G-5~-------7~-|
D-5~-------7~-|
A-3~-------5~-|
E-------------|

Bridge Riff
E-----------------------|
B-----------------------|
G-------------------5-7-|
D-222222222222-2222-5-7-|
A-222222222222-2222-3-5-|
E-000000000000-0000-----|
Suggest correction
Give kudos to tab author, rate the tab!
1 2 3 4 5
comments
print report bad tab
1 comment total.
0 reply
metalhead601 208 Jan 24, 2013 02:50 AM

you should REALLY actually tab songs not saying to "figure it out" terrible person.

guest
You may want to rate the tab now too:
select rating
Wanna post a correction for this tab? Suggest correction