Oops, an error
Loading. Please wait.

How To Pass The Time tab

79 views 1 this week
no commentswrite comment
1 2 3 4 5
3 more votes to show rating
add to favorites
×
Save as Personal and add changes to this tab that will be seen only by you. Learn more ›
×
You can save this tab as Personal to edit and correct it or add notes. All changes will be seen only by you. Learn more »
launch autoscroll
font size
0
reset
how to read this tab
guitar tuner
edit
Autoscroll
slow
fast
+/-
esc
set tempo
stop
Author
Difficulty
Blood Red Shoes - How to Pass the Time
Am      x02210
Asus2   x02200 

Intro
e|----------|--------------|----------|--------------|
B|-1-1--0-0-|-1-1--0-0--0--|-1-1--0-0-|-1-1--0-0--0--|
G|-2-2--2-2-|-2-2--2-2--2--|-2-2--2-2-|-2-2--2-2--2--|
D|-2-2--2-2-|-2-2--2-2--2--|-2-2--2-2-|-2-2--2-2--2--| x2
A|-0-0--0-0-|-0-0--0-0--0--|-0-0--0-0-|-0-0--0-0--0--|
E|----------|--------------|----------|--------------|

e|----------|--------------|----------|--------------|
B|-0-0--0-0-|-0-0--0-0--0--|-0-0--0-0-|-0-0--0-0--0--|
G|-2-2--2-2-|-2-2--2-2--2--|-2-2--2-2-|-2-2--2-2--2--|
D|-2-2--2-2-|-2-2--2-2--2--|-2-2--2-2-|-2-2--2-2--2--|
A|-0-0--0-0-|-0-0--0-0--0--|-0-0--0-0-|-0-0--0-0--0--|
E|----------|--------------|----------|--------------|

e|----------|--------------|----------|--------------|
B|-1-1--0-0-|-1-1--0-0--0--|-1-1--0-0-|-1-1--0-0--0--|
G|-2-2--2-2-|-2-2--2-2--2--|-2-2--2-2-|-2-2--2-2--2--|
D|-2-2--2-2-|-2-2--2-2--2--|-2-2--2-2-|-2-2--2-2--2--|
A|-0-0--0-0-|-0-0--0-0--0--|-0-0--0-0-|-0-0--0-0--0--|
E|----------|--------------|----------|--------------|

Verse
Am    Asus2    Am   Asus2
Make it to the club where
Am      Asus2   Am   Asus2
Clawing across the dancefloor
  Am      Asus2   Am     Asus2
‘Cause she can't avoid the pull
Am     Asus2        Am        Asus2
Got to make your way through another night out

Chorus
Asus2
Got it inside out
Asus2
Got it inside out
Asus2
Got it inside out
Asus2
Inside out

e|----------|--------------|----------|--------------|
B|-1-1--0-0-|-1-1--0-0--0--|-1-1--0-0-|-1-1--0-0--0--|
G|-2-2--2-2-|-2-2--2-2--2--|-2-2--2-2-|-2-2--2-2--2--|
D|-2-2--2-2-|-2-2--2-2--2--|-2-2--2-2-|-2-2--2-2--2--|
A|-0-0--0-0-|-0-0--0-0--0--|-0-0--0-0-|-0-0--0-0--0--|
E|----------|--------------|----------|--------------|

Verse
Am    Asus2    Am   Asus2
You make it to the bedroom
Am        Asus2     Am    Asus2
Where you'd move in for the kill
Am      Asus2    Am   Asus2
And the thrill is wearing off
Am     Asus2        Am        Asus2
Got to make your way through another night out

Chorus
Asus2
Got it inside out
Asus2
Got it inside out
Asus2
Got it inside out
Asus2
Inside out

e|-------------|----------|--------------|----------|--------------|
B|-------------|-1-1--0-0-|-1-1--0-0--0--|-1-1--0-0-|-1-1--0-0--0--|
G|-------------|-2-2--2-2-|-2-2--2-2--2--|-2-2--2-2-|-2-2--2-2--2--|
D|-------------|-2-2--2-2-|-2-2--2-2--2--|-2-2--2-2-|-2-2--2-2--2--| x2
A|-------------|-0-0--0-0-|-0-0--0-0--0--|-0-0--0-0-|-0-0--0-0--0--|
E|-0-3-3-3-3-3-|----------|--------------|----------|--------------|

Verse
Am   Asus2 Am  Asus2
Call this hedonism
Am   Asus2       Am    Asus2
But it’s just to pass the time
Am        Asus2          Am     Asus2
When you wake up wearing the same clothes
Am           Asus2       Am      Asus2
You haven't resolved the itching inside

Chorus
Asus2
Got it inside out
Asus2
Got it inside out
Asus2
Got it inside out
Asus2
Inside out

e|-------------|----------|--------------|----------|--------------|
B|-------------|-1-1--0-0-|-1-1--0-0--0--|-1-1--0-0-|-1-1--0-0--0--|
G|-------------|-2-2--2-2-|-2-2--2-2--2--|-2-2--2-2-|-2-2--2-2--2--|
D|-------------|-2-2--2-2-|-2-2--2-2--2--|-2-2--2-2-|-2-2--2-2--2--| x2
A|-------------|-0-0--0-0-|-0-0--0-0--0--|-0-0--0-0-|-0-0--0-0--0--|
E|-0-3-3-3-3-3-|----------|--------------|----------|--------------|

Bridge
e|-------------|
B|-------------|
G|-------------|
D|-------------|
A|-------------|
E|-0-3-3-3-3-3-|

e|------------|------------------|------------|------------------|
B|------------|------------------|------------|------------------|
G|------------|------------------|------------|------------------|
D|------------|------------------|------------|------------------| x4
A|------------|------------------|------------|------------------|
E|-0--5--0--5-|-0--5--0-3-3-3-3--|-0--5--0--5-|-0--5--0-3-3-3-3--|

Break
e|---------------0--------------------0------|
B|-------------1---1----------------1---1----|
G|-------2---2-------2--------2---2-------2--|
D|----2----2---------------2----2------------|  x7
A|-0--------------------0--------------------|
E|-------------------------------------------|
   Oh-Oh-Oh               Oh-Oh-Oh

e|---------------0---------------------------|
B|-------------1---1-------------------------|
G|-------2---2-------2-----------------------|
D|----2----2---------------------------------|
A|-0-----------------------------------------|
E|-------------------------------------------|
   Oh-Oh-Oh               Oh-Oh-Oh

Outro
e|----------|--------------|----------|--------------|
B|-1-1--0-0-|-1-1--0-0--0--|-1-1--0-0-|-1-1--0-0--0--|
G|-2-2--2-2-|-2-2--2-2--2--|-2-2--2-2-|-2-2--2-2--2--|
D|-2-2--2-2-|-2-2--2-2--2--|-2-2--2-2-|-2-2--2-2--2--| x2
A|-0-0--0-0-|-0-0--0-0--0--|-0-0--0-0-|-0-0--0-0--0--|
E|----------|--------------|----------|--------------|

e|----------|--------------|----------|--------------|
B|-0-0--0-0-|-0-0--0-0--0--|-0-0--0-0-|-0-0--0-0--0--|
G|-2-2--2-2-|-2-2--2-2--2--|-2-2--2-2-|-2-2--2-2--2--|
D|-2-2--2-2-|-2-2--2-2--2--|-2-2--2-2-|-2-2--2-2--2--|
A|-0-0--0-0-|-0-0--0-0--0--|-0-0--0-0-|-0-0--0-0--0--|
E|----------|--------------|----------|--------------|

e|----------|--------------|----------|--------------|
B|-1-1--0-0-|-1-1--0-0--0--|-1-1--0-0-|-1-1--0-0--0--|
G|-2-2--2-2-|-2-2--2-2--2--|-2-2--2-2-|-2-2--2-2--2--|
D|-2-2--2-2-|-2-2--2-2--2--|-2-2--2-2-|-2-2--2-2--2--|
A|-0-0--0-0-|-0-0--0-0--0--|-0-0--0-0-|-0-0--0-0--0--|
E|----------|--------------|----------|--------------|


            
            
Suggest correction
Creating personal tab
Creating personal tab
You can edit any tab online and save it as your Personal.

You can edit, replace or remove any tab part or add personal notes – all changes will be seen only by you.

Personal tabs can be accessed anytime from any device, even offline.
Learn more »
Give kudos to tab author, rate the tab!
1 2 3 4 5
comments
print report bad tab
guest
You may want to rate the tab now too:
select rating
Wanna post a correction for this tab? Suggest correction