Oops, an error
Loading. Please wait.

Sleepless Tab

19 views 1 this week
no commentswrite comment
1 2 3 4 5
2 more votes to show rating
add to favorites
launch autoscroll
font size
0
reset
how to read this tab
guitar tuner
Autoscroll
slow
fast
+/-
esc
set tempo
stop
Help us to improve Ultimate-Guitar.com Take our survey!
×
Author
[Intro]

Guitar 1
chords:
B - C - G

Guitar 2

e|------7--------7-------------------------------------------------------------|
B|--8--------8-----------------------------------------------------------------|
G|----9--------9---------------------------------------------------------------|
D|-----------------------------------------------------------------------------|
A|-----------------------------------------------------------------------------|
E|-----------------------------------------------------------------------------|


[Verse 1]

   B      C       G
I wasn't made that way
      B                    C          G          E
You've come for something that won't stay..in your brain
      B        C           G
was that high can't even touch
     B          C            G           E
And many lies didn't teach me much..that i know
     G               E
I'm out of luck..I'm out of luck

Guitar 2 (distorted)
      G               E
I'm out of luck..i'm out of luck


[Chorus]

Guitar 1&2
1 playing the chords..2 playing the notes

       B             C            G
e|-------------------------7-7-7-7-7-7-7-7-7-7-7-7-7b------------------------|
B|-4-4-4-4-4-4-4-4-5-5-5-5---------------------------------------------------|
G|---------------------------------------------------------------------------|
D|---------------------------------------------------------------------------|
A|---------------------------------------------------------------------------|
E|---------------------------------------------------------------------------|

       B             C            G
e|-------------------------7-7-7-7-7-7-7-7-7-7-7-7-7b------------------------|
B|-4-4-4-4-4-4-4-4-5-5-5-5---------------------------------------------------|
G|---------------------------------------------------------------------------|
D|---------------------------------------------------------------------------|
A|---------------------------------------------------------------------------|
E|---------------------------------------------------------------------------|


[Verse 2]

   B          C      G
I didn't see it happening
   B           C        G             E
it wasn't long before i scream..that you were gone
   B            C        G
It seems like everyone was dead
   B            C        G                   E
But then i found you tucked in your bed..and I know
   G                  E
I'm out of luck..I'm out of luck
   G                  E
I'm out of luck..i'm out of luck


[Outro]

Guitar 1

e|------7------7------7-----7-------7-----7----------------------------------|
B|--8-------8------8-----8------8-----8----8---------------------------------|
G|----9---9---9--9--9--9---9--9---9--9--9------------------------------------|
D|---------------------------------------------------------------------------|
A|---------------------------------------------------------------------------|
E|---------------------------------------------------------------------------|

Guitar 2

e|--x----x----7-----------------------------------------------------------------|
B|--4----5----8-----------------------------------------------------------------|
G|--4----5----7-----------------------------------------------------------------|
D|--4----5----x-----------------------------------------------------------------|
A|--x----x----x-----------------------------------------------------------------|
E|--x----x----x-----------------------------------------------------------------|

Guitar 3

e|---------------------------------------------------------------------------|
B|---------------------------------------------------------------------------|
G|---------------------------------------------------------------------------|
D|---------------------------------------------------------------------------|
A|--6-6-6-6-6-6-6-6-7-7-7-7-7------------------------------------------------|
E|----------------------------3-3-3-3-3-3-3-3-\15-15-15-15-15-15-15-15-------|


************************************

| x  Dead note
| b  Bend
| \  Slide down

************************************
Suggest correction
Give kudos to tab author, rate the tab!
1 2 3 4 5
comments
print report bad tab
guest
You may want to rate the tab now too:
select rating
Wanna post a correction for this tab? Suggest correction