Oops, an error
Loading. Please wait.

Freedom tab

version 1
version 1

Whole song

Interactive

6,465 views 1 this week
2 commentsread comments
1 2 3 4 5
x 4
add to favorites
×
Save as Personal and add changes to this tab that will be seen only by you. Learn more ›
×
You can save this tab as Personal to edit and correct it or add notes. All changes will be seen only by you. Learn more »
launch autoscroll
font size
0
reset
how to read this tab
guitar tuner
edit
Autoscroll
slow
fast
+/-
esc
set tempo
stop
Tuning: Drop C


"If the strumming pattern is confusing, I'm sorry.
It's hard to figure out the pattern myself.This It's Just a Basic Idea.
The synth throws me off"

Chorus 0:14-0:27

|------------------------------------------------------------|
|------------------------------------------------------------|
|------------------------------------------------------------|
|---------------3--3--3-3-3-3-----------------5--5--5-5-5-5--|
|0--0--0-0-0-0--1--1--1-1-1-1--3--3--3-3-3-3--3--3--3-3-3-3--|
|0--0--0-0-0-0-----------------3--3--3-3-3-3-----------------|

|---------------------------------------------|
|---------------------------------------------|
|---------------------------------------------|
|---------------3--3--3-3-3-3--5--5--5-5-5-5--|
|5--5--5-5-5-5--1--1--1-1-1-1--3--3--3-3-3-3--|
|5--5--5-5-5-5--------------------------------|


Verse: 0:28-0:55 (Do The Verse twice)

(x2)
|----------------------------------|
|----------------------------------|
|----------------------------------|
|------------------3-3-3-3-5-5-5-5-|
|0-0--------0-0----1-1-1-1-3-3-3-3-|
|0-0--------0-0--------------------|
 . .        . .


|--------------------------------------------------|
|--------------------------------------------------|
|--------------------------------------------------|
|7-7-7-7-7-7-7-7--7-7-7-7-7-7-7-7--3-3-3-3-5-5-5-5-|
|5-5-5-5-5-5-5-5--5-5-5-5-5-5-5-5--1-1-1-1-3-3-3-3-|
|0-0-0-0-0-0-0-0--0-0-0-0-0-0-0-0------------------|


|--------------------------------------------------|
|--------------------------------------------------|
|--------------------------------------------------|
|7-7-7-7-7-7-7-7--7-7-7-7-7-7-7-7------------------|
|5-5-5-5-5-5-5-5--5-5-5-5-5-5-5-5--3-3-3-3-5-5-5-5-|
|0-0-0-0-0-0-0-0--0-0-0-0-0-0-0-0--3-3-3-3-5-5-5-5-|


Chorus: 1:25-1:52

(x2)

|------------------------------------------------------------|
|------------------------------------------------------------|
|------------------------------------------------------------|
|---------------3--3--3-3-3-3-----------------5--5--5-5-5-5--|
|0--0--0-0-0-0--1--1--1-1-1-1--3--3--3-3-3-3--3--3--3-3-3-3--|
|0--0--0-0-0-0-----------------3--3--3-3-3-3-----------------|

|---------------------------------------------|
|---------------------------------------------|
|---------------------------------------------|
|---------------3--3--3-3-3-3--5--5--5-5-5-5--|
|5--5--5-5-5-5--1--1--1-1-1-1--3--3--3-3-3-3--|
|5--5--5-5-5-5--------------------------------|


|-------------|
|-------------|
|-------------|
|-0~----------|
|-0~----------|
|-0~----------|


Interlude: 2:07-2:20

(The Struming is hard to tab because of the syth)
|---------------------------------------------------------------|
|---------------------------------------------------------------|
|-------------------------------------1010101010101010\99999999-|
|0-0-0000-0-0-0000-0-0-0000-0-0-0000-/1010101010101010\99999999-|
|0-0-0000-0-0-0000-0-0-0000-0-0-0000-/-8-8-8-8-8-8-8-8\77777777-|
|0-0-0000-0-0-0000-0-0-0000-0-0-0000----------------------------|


|-------------||-----------------|
|-------------||-----------------|
|-------------||-----------------|<--- (This Palm muting part is
|-0~----------||-----------------|      completely optional. I
|-0~----------||-00--00--00--000-|      added it in b/c I was more
|-0~----------||-00--00--00--000-|      comfortable playing it.)
                 ..  ..  ..  ...
--------------------------------------------------------------------------

(I wish I could tab the piano to play the same notes as the guitar. Make
 a cool little guitar solo, but it would be a little difficult for me to tab
 at my current experience.)

-------------------------------------------------------------------------

Breakdown: 2:49-3:02

|------------------------------------------------------------|
|------------------------------------------------------------|
|2222----22-3333-22-33-5555555555-3333333333333/555555555555-|
|2222----22-3333-22-33-5555555555-3333333333333/555555555555-|
|0000-55-00-1111-00-11-3333333333-1111111111111/333333333333-|
|-----55-----------------------------------------------------|

---------------------------------------------------------------

Solo Fill: Rhythim Guitar3:03-3:17


|------------------------------------------------------------|
|------------------------------------------------------------|
|------------------------------------------------------------|
|---------------3--3--3-3-3-3-----------------5--5--5-5-5-5--|
|0--0--0-0-0-0--1--1--1-1-1-1--3--3--3-3-3-3--3--3--3-3-3-3--|
|0--0--0-0-0-0-----------------3--3--3-3-3-3-----------------|

|---------------------------------------------|
|---------------------------------------------|
|---------------------------------------------|
|---------------3--3--3-3-3-3--5--5--5-5-5-5--|
|5--5--5-5-5-5--1--1--1-1-1-1--3--3--3-3-3-3--|
|5--5--5-5-5-5--------------------------------|

(The First Half of the Guitar solo, I have figured out, but the second half is a little 
for me. So I wont tab it. However I will update this
 when I do finish tabbing the solo.)
----------------------------------------------------------------------

Chorus:3:17-3:58

(x3)
|------------------------------------------------------------|
|------------------------------------------------------------|
|------------------------------------------------------------|
|---------------3--3--3-3-3-3-----------------5--5--5-5-5-5--|
|0--0--0-0-0-0--1--1--1-1-1-1--3--3--3-3-3-3--3--3--3-3-3-3--|
|0--0--0-0-0-0-----------------3--3--3-3-3-3-----------------|

|---------------------------------------------|
|---------------------------------------------|
|---------------------------------------------|
|---------------3--3--3-3-3-3--5--5--5-5-5-5--|
|5--5--5-5-5-5--1--1--1-1-1-1--3--3--3-3-3-3--|
|5--5--5-5-5-5--------------------------------|


3:59-4:15
Just the syth and techno.


I hope you enjoy it. Any questions, feel free to e-mail me a dauragon414@yahoo.com..
Suggest correction
Creating personal tab
Creating personal tab
You can edit any tab online and save it as your Personal.

You can edit, replace or remove any tab part or add personal notes – all changes will be seen only by you.

Personal tabs can be accessed anytime from any device, even offline.
Learn more »
comments
print report bad tab
2 comments total.
0 reply
JordanFlayer 287 Dec 24, 2008 06:29 PM

I'm pretty sure this is in Drop D, it sounds better when played like that

0 reply
JordanFlayer 287 Jan 15, 2009 09:14 PM

I was wrong about Drop D, the song is in D Standard, watch the music video

guest
You may want to rate the tab now too:
select rating
Wanna post a correction for this tab? Suggest correction