Oops, an error
Loading. Please wait.

I Love You More Than Youll Ever Know tab

version 1
version 1

Whole song

Interactive

922 views 15 this week
no commentswrite comment
1 2 3 4 5
2 more votes to show rating
add to favorites
×
Save as Personal and add changes to this tab that will be seen only by you. Learn more ›
×
You can save this tab as Personal to edit and correct it or add notes. All changes will be seen only by you. Learn more »
launch autoscroll
font size
0
reset
how to read this tab
guitar tuner
edit
Autoscroll
slow
fast
+/-
esc
set tempo
stop
Author
-----------------------------------------------------------------
  I Love You More Than You'll Ever Know - Blood, Sweat & Tears  
-----------------------------------------------------------------

Tabbed By : Aeonoptic
e-mail: aeonoptic@gmail.com

Tuning: EADGBe

[Intro]

  Cm            Gm7            Cm            Gm7
E|-------------|--------------|-------------|--------------------|
B|-------------|--------------|---------11-8|13br15p11----11h13~~|
G|10h12~~--10p8|10br12p8----8~|10h12~~------|----------12--------|
D|-------------|---------10---|-------------|--------------------|
A|-------------|--------------|-------------|--------------------|
E|-------------|--------------|-------------|--------------------|


Guitar strums once a bar during the verse/chorus

Cm                   Gm7
If I ever leave you, you can say I told you so
If I ever hurt you baby, you know I hurt myself as well

Gb Fm7                         G7
   Is that any way for a man to carry on?
 Ab                                G7
   You'd think he'd want his little loved one gone
 Cm             Cm/Bb                   Adim Ab          G7
 I Love you baby, more than you'll ever know,  more than you'll ever  
 know

[Break]

  Cm                   Gm7          Cm                   Gm7
E|--------------------|------------|---11~--13br15p11---|11h13-11~|
B|---------13p11-13p11|13b15-13-11~|13~---------------13|---------|
G|10h12~~-------------|------------|--------------------|---------|
D|--------------------|------------|--------------------|---------|
A|--------------------|------------|--------------------|---------|
E|--------------------|------------|--------------------|---------|
  
[Verse 2 horns]

Cm                                  Gm7                                
When I wasn't makin too much money, you know where my paycheck went
You know I brought it home to baby, and I never spent one red cent
Gb Fm7                         G7
   Is that any way for a man to carry on?
 Ab                                G7
   You'd think he'd want his little loved one gone
 Cm             Cm/Bb                   Adim Ab          G7
 I Love you baby, more than you'll ever know,  more than you'll ever        
 know

  Cm  Gm7 Cm  Gm7 Gb    Fm7 G7  Ab  G7
E|15~|---|15~|---|---------|---|---|---|
B|---|15~|---|15~|15-14-13~|15~|16~|15~|
G|---|---|---|---|---------|---|---|---|
D|---|---|---|---|---------|---|---|---|
A|---|---|---|---|---------|---|---|---|
E|---|---|---|---|---------|---|---|---|


[Transition]

  Cm      G7    Cm    C
E|-------------|-----------|
B|------3---3-4|--4-4/5---5|
G|5---5--------|--------5--|
D|--5-----5----|5----------|
A|-------------|-----------|
E|-------------|-----------|

[Bridge Horns]

Eb                 Ab    
I'm not tryin to be
any kind of man
I'm tryin to be somebody
you can love trust and understand
F                    C
I know that I can be Yeah!
a part of you that no one else could see
Fm                               F#dim       G      G     G
I just gotta hear, to hear you say "it's alright" yeah, yeah,

  Eb                Ab                Eb                Ab                F      C
E|15~---15-13------|---------------13|15~---15-13------|-----------------|----17|15-17-15~--17/20~|
B|------------16-13|------13-15-16---|------------16-13|-----------------|13~---|-----------------|
G|-----------------|15~--------------|-----------------|15~------12-13-15|------|-----------------|
D|-----------------|-----------------|-----------------|------15---------|------|-----------------|
A|-----------------|-----------------|-----------------|-----------------|------|-----------------|
E|-----------------|-----------------|-----------------|-----------------|------|-----------------|

  Fm  F#dim G                 Cm
E|13~|11~--|10-10-10|15-15-15|20\|
B|---|-----|--------|--------|---|
G|---|-----|--------|--------|---|
D|---|-----|--------|--------|---|
A|---|-----|--------|--------|---|
E|---|-----|--------|--------|---|

[Verse 3]

Cm                              Gm7
YEAH! I'm only flesh and blood, but I can be all that you demand
I could be president of General Motors, or just a tiny grain of sand

  Cm (string riff)
E|----------|
B|----------|
G|12p10\8---|
D|--------10|
A|----------|
E|----------|

Gb Fm7                         G7
   Is that any way for a man to carry on?
Ab                                G7
  You'd think he'd want his little loved one gone
Cm             Cm/Bb                   Adim Ab          G7
I Love you baby, more than you'll ever know,  more than you'll ever        
know

  Cm  Gm7 Cm  Gm7 Gb    Fm7 G7  Ab  G7
E|15~|---|15~|---|---------|---|---|---|
B|---|15~|---|15~|15-14-13~|15~|16~|15~|
G|---|---|---|---|---------|---|---|---|
D|---|---|---|---|---------|---|---|---|
A|---|---|---|---|---------|---|---|---|
E|---|---|---|---|---------|---|---|---|

[Solos]
Guitar
  Cm       Gm7 Cm                                  Gm7
E|13b15~-11|~~~|13-11-13b15-13pbr15p11----11h13-11|18-13pbr15-11~~|
B|---------|---|-----------------------13---------|---------------|
G|---------|---|----------------------------------|---------------|
D|---------|---|----------------------------------|---------------|
A|---------|---|----------------------------------|---------------|
E|---------|---|----------------------------------|---------------|
        
Sax
  Cm                                                           
E|------------------------------------------------------------|
B|------16-16----16-18h20p18----------------------------------|
G|17-17-------17-------------17/20-17-15----------------------|
D|---------------------------------------17\15p13-15----------|
A|---------------------------------------------------15/18-15~|
E|------------------------------------------------------------|

  Gm7
E|-------------------------------------------------------------------|
B|-------------------------20-18~------------------------------------|
G|15-15-------17/19-19--19---------17/20-17-15-----------------------|
D|------17-17----------------------------------17\15p13-15-13b-------|
A|-------------------------------------------------------------15-15~|
E|-------------------------------------------------------------------|

  Cm
E|---------------------------------------------------------------------------------------15---|
B|---------------------------------------------------------------16-16----16-18-18----16----18|
G|------------------------------------15----15----15-17-17-15-17-------17----------17---------|
D|------15h17p15--/13~----13-15h16h17----17----17---------------------------------------------|
A|15h18----------------15---------------------------------------------------------------------|
E|--------------------------------------------------------------------------------------------|

  Gm7                                                                     Ab
E|--------------------------------------------------------------------------|
B|16----------------18h20p18~-----------------------------------------------|
G|---17-------15--------------17/19-17-15-----------------------------------|
D|------17~------17-----------------------17\15p12h15-----------------------|
A|----------------------------------------------------15/17~--15-17-18-15---|
E|------------------------------------------------------------------------16|

  Fm7                     G7
E|----------------------------------------------------------------|
B|------------------16----16h18/20\18--18-16----------------------|
G|------------15-17----17--------------------19p17-16-19----------|
D|17-15-15-17--------------------------------------------17\16/17~|
A|----------------------------------------------------------------|
E|----------------------------------------------------------------|

  Ab                                     G7
E|-----------------------------------------------------------------------------|
B|------------18-18----18----18----18/20-18------------------------------------|
G|------17/20-------20----20----20----------17/19-17--------------18h20-17~--15|
D|18-20----------------------------------------------20--13-15-17--------------|
A|-----------------------------------------------------------------------------|
E|-----------------------------------------------------------------------------|

  Cm                                              Cm/Bb
E|------------------------------------------------------------------------------|
B|------------------18h20p18-16----------------------------------15----14h15p14~|
G|------------17-17-------------17-15-15----------------------15----15----------|
D|---------------------------------------17\15p13-15-13----13-------------------|
A|18-15-15~---------------------------------------------15----------------------|
E|------------------------------------------------------------------------------|

  Ab                        G7
E|--------------------------------------------|
B|---------16~--16h17-16h17-------------------|
G|13h15-17------------------16----------------|
D|-----------------------------18-17----------|
A|-----------------------------------17/18-15~|
E|--------------------------------------------|

  Cm                 Gm7          Cm                                               Gm7
E|-------------------------------|---------------------------------------------------------|
B|-------------------------------|------13-11-------13-------------------------------------|
G|10h12~~--10p8-10p8-10/12-10-8~~|10/12-------12-10----12-10-12p10\8----8h10p8-----8h10-8~~|
D|-------------------------------|-----------------------------------10--------10----------|
A|-------------------------------|---------------------------------------------------------|
E|-------------------------------|---------------------------------------------------------|

Cm                   Gm7
If I ever leave you, you can say I told you so
If I ever hurt you baby, you know I hurt myself as well

Gb Fm7                         G7
   Is that any way for a man to carry on?
 Ab                                G7
   You'd think he'd want his little loved one gone
Cm             Cm/Bb                   Adim Ab          G7
I Love you baby, more than you'll ever know,  more than you'll ever        
know

Instrumental Fills

  Cm  Gm7    Cm  Ab   Fm7  G7  Ab G7
E|20\|------|20\|---------|------|--|
B|---|------|---|10-9-8~--|6~--7\|6~|
G|---|10trem|---|---------|------|--|
D|---|------|---|---------|------|--|
A|---|------|---|---------|------|--|
E|---|------|---|---------|------|--|

Ab G7
      I love you baby, I love you baby
       
  Cm      Gm7                 Cm     Gm7
E|---------------------------|----------|
B|--------13-11-13b15-13-11~~|----------|
G|10h12~~--------------------|12~~------|
D|---------------------------|----------|
A|---------------------------|----------|
E|---------------------------|----------|

[Ending]

WELL ALRIGHT!
Cm                       Gm7
I told you so many times before
Cm          Gm7
I love you, I love you, I love you
Cm                          Gm7
If you don't know then I'll tell you one more time
Cm                    
I love you, I love you, I love you ..

  Cm         Gm7      Cm        Gm7                    Cm                    Gm7
E|----9---------9----|---9------------13br15p11----11~|13p11-13p11-13br15p11----11----|
B|----11b13-----11b13|---11b13-----13-----------13----|----------------------13----13~|
G|-------------------|8---------10--------------------|-------------------------------|
D|10~--------12------|--------------------------------|-------------------------------|
A|-------------------|--------------------------------|-------------------------------|
E|-------------------|--------------------------------|-------------------------------|

  Cm            (fade out)
E|8-------------------|
B|11b13---------------|
G|------10br12p8----8~|
D|---------------10---|
A|--------------------|
E|--------------------|



| /  slide up
| \  slide down
| h  hammer-on
| p  pull-off
| ~  vibrato
| +  harmonic
| x  Mute note
Suggest correction
Creating personal tab
Creating personal tab
You can edit any tab online and save it as your Personal.

You can edit, replace or remove any tab part or add personal notes – all changes will be seen only by you.

Personal tabs can be accessed anytime from any device, even offline.
Learn more »
Give kudos to tab author, rate the tab!
1 2 3 4 5
comments
print report bad tab
guest
You may want to rate the tab now too:
select rating
Wanna post a correction for this tab? Suggest correction