Oops, an error
Loading. Please wait.

Hades Rising power

version 1
version 1

Whole song

Interactive

2,509 views 1 this week
3 commentsread comments
1 2 3 4 5
x 3
add to favorites
guitar tuner
Autoscroll
slow
fast
+/-
esc
set tempo
stop
Author
File Format
Filesize
Instruments
.ptb
42 Kb
rhythm_guitars, lead_guitars #2
"Hades Rising"
demo version
Play now

or get full version for Free

×
Get full version now!
Learn and play this song
in Tab Pro
Try for free

or get $10 off Welcome Bonus

Get welcome bonus
Get access to Tab Pro version of “Hades Rising”!
Tab Pro is a premium guitar tab service, available on PC, Mac, iOS and Android
TRY FOR FREE
Your download will start in 7 seconds
×
Like this song? We have more! Follow us on Facebook for daily tips, lessons and other guitar-related content.
To download “Hades Rising” Power tab click button below
Please note that you must have Power Tab software installed on your
computer in order to view this file.
Suggest correction
Give kudos to tab author, rate the tab!
1 2 3 4 5
comments
report bad tab
3 comments total.
0 reply
jonas3 701 Apr 03, 2010 01:53 AM

perfect, the last solo is awesome, thanks =)

0 reply
Thrash_Til_Deth 10 Sep 01, 2012 06:20 PM

This is great, especially the first solo \m/

0 reply
Jackson kv 1,173 Sep 06, 2012 04:46 PM

I think the one solo is more like this

|-------14-16/17\14--16p14p13-----16p14------------|
|----14------------------------13------------------|
|--------------------------------------------------|
|-16-----------------------------------------------|
|--------------------------------------------------|
|--------------------------------------------------|

SECOND TIME
|-------14-16/17\14--16p14p13----------------------|
|----14------------------------13----13------------|
|---------------------------------13---------------|
|-16-----------------------------------------------|
|--------------------------------------------------|
|--------------------------------------------------|

guest
You may want to rate the tab now too:
select rating