Oops, an error
Loading. Please wait.

Ways To The Grave tab

version 1
version 1

Whole song

Interactive

1,962 views 1 this week
1 commentread comment
1 2 3 4 5
x 3
add to favorites
×
Save as Personal and add changes to this tab that will be seen only by you. Learn more ›
×
You can save this tab as Personal to edit and correct it or add notes. All changes will be seen only by you. Learn more »
launch autoscroll
font size
0
reset
how to read this tab
guitar tuner
edit
Autoscroll
slow
fast
+/-
esc
set tempo
stop
http://bloodbath.biz

BLOODBATH - WAYS TO THE GRAVE
transcribed by Jon (YourDeadGroom)
version 1.0

Notes: This is notated in E to make reading it less confusing, but each string
should be tuned down to: (lowest to highest) B, E, A, D, F#, B.
Notes with a '*' next to it indicate that it should be speed picked.
'h' = hammer on, 'p' = pull off.
'tr' = trill. Rapid series of pull-offs & hammer-ons between the notes
indicated, starting with the one in '()'.
'^' = string bend. Bend the note before the '^' up to the pitch of the note
in '()' after it.
Spacing and barlines are a rough approximation of rhythm only.
Riffs are only indicated the first time they are played, it's up to you to
figure out where they may get repeated.
The use of '||' indicates the end of a riff/section.

0:00 (lead) 0:00 (rhythm)
E----------||-----------------|---------------||
B----------||-----------------|---------------||
G----------||-----------------|---------------||
D----------||-----------------|---------------||
A-7--6-----||-2-----tr(7)6----|-6-----6^(7)---||
E------8---||-0---------------|-4-------------||

0:42 (each guitar plays one line)
E----------||
B----------||
G----------||
D-tr(9)8---||
A----------||
E-tr(7)6---||

0:44 (guitar 1)(speed pick all except last chord) 0:44 (guitar 2)
E----------------------------|--------------------||--------|---------------||
B----------------------------|--------------------||--------|---------------||
G----------------------------|--------------------||--------|---------------||
D----------------------------|--------------------||--------|---------------||
A----------------------------|-------------5------||-5------|-5---6---5-----||
E-3--0-1-4-0-1-3-0-1-3-4-3-1-|-3-0-1-4-0-1-3------||-3------|-3---4---3-----||

0:50 (speed pick all)
E----------------------------|---------------------|
B----------------------------|---------------------|
G----------------------------|-------------0-------|
D----------------------------|---------------1-----|
A----------------------------|-----------------2---|
E-3--0-1-4-0-1-3-0-1-3-4-3-1-|-3-0-1-4-0-1-------4-|

E----------------------------|---------------------||
B----------------------------|---------------0-----||
G----------------------------|-----------------3-0-||
D----------------------------|-------------2-------||
A----------------------------|---------------------||
E-3--0-1-4-0-1-3-0-1-3-4-3-1-|-3-0-1-4-0-1---------||

0:58 (speed pick all)
E-------------------------------|--------------------------------------------||
B-------------------------------|--------------------------------------------||
G-------------------------------|-----------------------------------------5--||
D-2-0-2-3-2-0-2---2-0-2-3-5-6---|-2-0-2-3-2-0-2---2-0-2-3-2-0----tr(6)5------||
A---------------1---------------|---------------1-------------4--------------||
E-------------------------------|--------------------------------------------||

1:43
E----------------------------------||
B----------------------------------||
G-----------3-----2-----3-----5----||
D-----5-4-5---4-4---3-3---3-3---3--||
A----------------------------------||
E-(0)------------------------------||

1:45 (speed pick all)
E-------------------------||
B-------------------------||
G-------------------------||
D-------------------------||
A------2------5-----7-----||
E-0--1-----1-----4-----6--||

1:54
E----------------------------|--------------------------------||
B----------------------------|--------------------------------||
G----------------------------|--------------------------------||
D----------------------------|--------------------------------||
A----5h6p5--4h5p4--2h4p2-*1--|----5h6p5--4h5p4--2h4p2-*1------||
E-0--------------------------|-0-------------------------*1---||

2:05 (lead)
E--------------------------|-------------------------||
B--------------------------|-------------------------||
G--------------------------|-------------------------||
D------------9-8-9-8---8---|-7-8-7---7---6-7-6-------||
A-7--7--9-10---------9-----|-------8-----------7-6---||
E--------------------------|-------------------------||

2:05 (rhythm)
E------------|---------------||
B------------|---------------||
G------------|---------------||
D-------3----|-7-------------||
A-2-----1----|-5-----7--6----||
E-0----------|-------5--4----||

2:20 (rhythm)(alternate pick each note)
E-------------|------------||
B-------------|------------||
G-------------|------------||
D-------------|------------||
A------2--1---|-5----------||
E-0-----------|------5--4--||

2:20 (lead)(play each grouping 4 times)
E---------------------------------------------------||
B---------------------------------------------------||
G---------------------------------------------------||
D-(9----)------(8----)------(7----)-------(6----)---||
A-(--7-7)------(--9-9)------(--5-5)-------(--4-4)---||
E---------------------------------------------------||

4:09
E-----||
B-----||
G-----||
D-----||
A-2---||
E-0---||

            
            
Suggest correction
Creating personal tab
Creating personal tab
You can edit any tab online and save it as your Personal.

You can edit, replace or remove any tab part or add personal notes – all changes will be seen only by you.

Personal tabs can be accessed anytime from any device, even offline.
Learn more »
Give kudos to tab author, rate the tab!
1 2 3 4 5
comments
print report bad tab
1 comment total.
0 reply
Darkling83 123 Feb 27, 2009 04:41 PM

the intro lead I think is an octave chord

E----------||
B-----------||
G--9--8--5--||
D-----------||
A--7--6--3--||
E-----------||

guest
You may want to rate the tab now too:
select rating
Wanna post a correction for this tab? Suggest correction