Oops, an error
Loading. Please wait.

In The Name Of Metal tab

4 views 3 this week
no commentswrite comment
1 2 3 4 5
2 more votes to show rating
add to favorites
×
Save as Personal and add changes to this tab that will be seen only by you. Learn more ›
×
You can save this tab as Personal to edit and correct it or add notes. All changes will be seen only by you. Learn more »
launch autoscroll
font size
0
reset
how to read this tab
guitar tuner
edit
Autoscroll
slow
fast
+/-
esc
set tempo
stop
About this tab version
Only rythm guitars. No solo, sorry. Was this info helpful? Yes No
TSong: In The Name Of Metal
Artist: Bloodbound
Album: In The Name Of Metal
Year: 2012
Youtube: https://www.youtube.com/watch?v=5VUX8T4DB7o

Tempo = 120
Tunning = 1 step down

Notice: Sorry, but this version is without solo. It's beyond my limits. I hope you'll enjoy it as well. If 
you know how to play solo, feel free to contact me. I'd love to make complete GuitarPro version.


[Intro] x2
D |----------------------------------------------------|------------------------------------------------|
A |----------------------------------------------------|------------------------------------------------|
F |----------------------------------------------------|------------------------------------------------|
C |--------------9-----------------------------9-------|--------------10----------------------------10--|
G |--7--7--7-----7-----7--7--7-----7-----7--7--7-------|--7--7--7-----7-----7--7--7-----7-----7--7--7---|
D |----------------------------------------------------|------------------------------------------------|
pm   .  .  .           .  .  .     .     .  .             .  .  .           .  .  .     .     .  .

D |----------------------------------------------------|------------------------------------------------|
A |----------------------------------------------------|------------------------------------------------|
F |----------------------------------------------------|------------------------------------------------|
C |--------------12----------------------------12------|--------------9---------------------------------|
G |--7--7--7-----7-----7--7--7-----7-----7--7--7-------|--7--7--7-----7-----------------5-----4-----2---|
D |----------------------------------------------------|--------------------------------3-----2-----0---|
pm   .  .  .           .  .  .     .     .  .             .  .  .                       .     .     .

D |----------------------------------------------------|------------------------------------------------|
A |----------------------------------------------------|------------------------------------------------|
F |----------------------------------------------------|------------------------------------------------|
C |--------------9-----------------------------9-------|--------------8-----------------------------8---|
G |--7--7--7-----7-----7--7--7-----7-----7--7--7-------|--7--7--7-----7-----7--7--7-----7-----7--7--7---|
D |----------------------------------------------------|------------------------------------------------|
pm   .  .  .           .  .  .     .     .  .             .  .  .           .  .  .     .     .  .

D |----------------------------------------------------|------------------------------------------------|
A |----------------------------------------------------|------------------------------------------------|
F |----------------------------------------------------|------------------------------------------------|
C |--------------7-----------------------------7-------|--------------5---------------------------------|
G |--7--7--7-----7-----7--7--7-----7-----7--7--7-------|--7--7--7-----3-----------------5-----4-----2---|
D |----------------------------------------------------|--------------------------------3-----2-----0---|
pm   .  .  .           .  .  .     .     .  .             .  .  .                       .     .     .


[Verse]

   You say I’m evil you say I suck
D |----------------------------------------------------|----------------------------------------------------|
A |----------------------------------------------------|----------------------------------------------------|
F |----------------------------------------------------|----------------------------------------------------|
C |----------------------------------------------------|----------------------------------------------------|
G |--7--7--7-----7-----7--7--7-----7-----7--7--7-------|--7--7--7-----7-----7--7--7--7--7-----7--7--7--7----|
D |----------------------------------------------------|----------------------------------------------------|
pm   .  .  .     .     .  .  .    .     .  .  .           .  .  .     .     .  .  .  .  .     .  .  .  .

   My hair’s too long I don’t give a fuck
D |----------------------------------------------------|----------------------------|
A |----------------------------------------------------|----------------------------|
F |----------------------------------------------------|----------------------------|
C |----------------------------------------------------|--5-------------------------|
G |--7--7--7-----7-----7--7--7-----7-----7--7--7-------|--3--------------5--4--2----|
D |----------------------------------------------------|-----------------3--2--0----|
pm   .  .  .     .     .  .  .     .     .  .  .                         .  .  .   

   I’m doing nothing out of control
D |----------------------------------------------------|----------------------------------------------------|
A |----------------------------------------------------|----------------------------------------------------|
F |----------------------------------------------------|----------------------------------------------------|
C |----------------------------------------------------|----------------------------------------------------|
G |--7--7--7-----7-----7--7--7-----7-----7--7--7-------|--7--7--7-----7-----7--7--7--7--7-----7--7--7--7----|
D |----------------------------------------------------|----------------------------------------------------|
pm   .  .  .     .     .  .  .     .     .  .  .          .  .  .     .     .  .  .  .  .     .  .  .  .

   My music’s wrong I don’t care at all
D |-------|----------------------------|
A |-------|----------------------------|
F |-------|----------------------------|
C |--7----|--5-------------------------|
G |--5----|--3--------------5--4--2----|
D |-------|-----------------3--2--0----|
pm                          .  .  .

   You say I’m ditry I smell like shit
D |----------------------------------------------------|----------------------------------------------------|
A |----------------------------------------------------|----------------------------------------------------|
F |----------------------------------------------------|----------------------------------------------------|
C |----------------------------------------------------|----------------------------------------------------|
G |--7--7--7-----7-----7--7--7-----7-----7--7--7-------|--7--7--7-----7-----7--7--7--7--7-----7--7--7--7----|
D |----------------------------------------------------|----------------------------------------------------|
pm   .  .  .     .     .  .  .     .     .  .  .          .  .  .     .     .  .  .  .  .     .  .  .  .

   All dressed in black and my clothes don’t fit
D |----------------------------------------------------|----------------------------|
A |----------------------------------------------------|----------------------------|
F |----------------------------------------------------|----------------------------|
C |----------------------------------------------------|--5-------------------------|
G |--7--7--7-----7-----7--7--7-----7-----7--7--7-------|--3--------------5--4--2----|
D |----------------------------------------------------|-----------------3--2--0----|
pm   .  .  .     .     .  .  .     .     .  .  .                         .  .  .   

   I’m a sinner excuse me m’am
D |----------------------------------------------------|----------------------------------------------------|
A |----------------------------------------------------|----------------------------------------------------|
F |----------------------------------------------------|----------------------------------------------------|
C |----------------------------------------------------|----------------------------------------------------|
G |--7--7--7-----7-----7--7--7-----7-----7--7--7-------|--7--7--7-----7-----7--7--7--7--7-----7--7--7--7----|
D |----------------------------------------------------|----------------------------------------------------|
pm   .  .  .     .     .  .  .     .     .  .  .          .  .  .     .     .  .  .  .  .     .  .  .  .

   You take your moral I don’t give a damn
D |-------|-------|
A |-------|-------|
F |-------|-------|
C |--7----|--5----|
G |--5----|--3----|
D |-------|-------|


[Pre-chorus]
   
   Metal’s getting hyper
D |----------------------------------------------------|
A |----------------------------------------------------|
F |----------------------------------------------------|
C |----------------------------------------------------|
G |----------------------------------------------------|
D |--5--5--5--5--7--7--7--7--8--8--8--8--5--5--5--5----|
pm   .  .  .  .  .  .  .  .  .  .  .  .  .  .  .  .

   deadly as a viper
D |----------------------------------------------------|
A |----------------------------------------------------|
F |----------------------------------------------------|
C |----------------------------------------------------|
G |----------------------------------------------------|
D |--7--7--7--7--8--8--8--8-|10-10-10-10-7--7--7--7----|
pm   .  .  .  .  .  .  .  .  .  .  .  .  .  .  .  .

   Rise from arma-
D |----------------------------------------------------|
A |----------------------------------------------------|
F |----------------------------------------------------|
C |----------------------------------------------------|
G |----------------------------------------------------|
D |--8--8--8--8--10-10-10-10|-12-12-12-12-8--8--8--8---|
pm   .  .  .  .  .  .  .  .  .  .  .  .  .  .  .  .

   -geddon
D |----------------------------------------------------|
A |----------------------------------------------------|
F |----------------------------------------------------|
C |----------------------------------------------------|
G |----------------------------------------------------|
D |--7--7--7--7--7--7--7--7--5--5--5--5--5--5--5--5----|
pm   .  .  .  .  .  .  .  .  .  .  .  .  .  .  .  .

   Faster than a feight train
D |----------------------------------------------------|
A |----------------------------------------------------|
F |----------------------------------------------------|
C |----------------------------------------------------|
G |----------------------------------------------------|
D |--5--5--5--5--7--7--7--7--8--8--8--8--5--5--5--5----|
pm   .  .  .  .  .  .  .  .  .  .  .  .  .  .  .  .

   stronger than a steel chain
D |----------------------------------------------------|
A |----------------------------------------------------|
F |----------------------------------------------------|
C |----------------------------------------------------|
G |----------------------------------------------------|
D |--7--7--7--7--8--8--8--8--|10-10-10-10-7--7--7--7---|
pm   .  .  .  .  .  .  .  .  .  .  .  .  .  .  .  .

   Screaming voices 
D |----------------------------------------------------|
A |----------------------------------------------------|
F |----------------------------------------------------|
C |----------------------------------------------------|
G |--------------------------------------10-10-10-10---|
D |--8--8--8--8--10-10-10-10-|12-12-12-12--------------|
pm   .  .  .  .  .  .  .  .  .  .  .  .  .  .  .  .

   roar!
Henrik:
D |----------------------------------------------------|----------------|
A |----------------------------------------------------|----------------|
F |----------------------------------------------------|----------------|
C |----------------------------------------------------|----------------|
G |--9--10-9--10-9--10-9--10-9--10-9--10-9--10-9--10---|--9~----5--5----|
D |----------------------------------------------------|--------3--2----|

Tomas:
D |----------------------------------------------------|----------------|
A |--10-12-10-12-10-12-10-12-10-12-10-12-10-12-10-12---|--10~-----------|
F |----------------------------------------------------|----------------|
C |----------------------------------------------------|----------------|
G |----------------------------------------------------|--------5--5----|
D |----------------------------------------------------|--------3--2----|


[Chorus]
  
Tomas:
   In the name of metal
D |----------------------------|----------------------------|
A |----------------------------|----------------------------|
F |----------------------------|----------------------------|
C |--9--------9----------------|----------------------------|
G |--7--7--7--7--7--7--7--7----|--5--------5----------------|
D |----------------------------|--3--3--3--3--3--3--3--3----|
pm      .  .     .  .  .  .          .  .     .  .  .  .

   Raise your fist to the heaven above
D |----------------------------|----------------------------|
A |----------------------------|----------------------------|
F |----------------------------|----------------------------|
C |--9--------5----------------|-----------7----------------|
G |--7--7--7--3--3--3--3--3----|--5--------5--5--5--5--5----|
D |----------------------------|--3--3--3-------------------|
pm      .  .     .  .  .  .          .  .     .  .  .  .

   In the name of metal
D |----------------------------|----------------------------|
A |----------------------------|----------------------------|
F |----------------------------|----------------------------|
C |--9--------9----------------|--5--------5----------------|
G |--7--7--7--7--7--7--7--7----|--3--3--3--3--3--3--3--3----|
D |----------------------------|----------------------------|
pm      .  .     .  .  .  .          .  .     .  .  .  .

   Raise your fist and shout
D |----------------------------|----------------------------|
A |----------------------------|----------------------------|
F |----------------------------|----------------------------|
C |--9--------5-----------7----|----------------------------|
G |--7--7--7--3--3--3--3--5----|--5--5--5--5--5-----5-------|
D |----------------------------|--------------3-----2-------|
pm      .  .     .  .  .  .       .  .  .  .

   In the name of metal
D |----------------------------|----------------------------|
A |----------------------------|----------------------------|
F |----------------------------|----------------------------|
C |--9--------9----------------|----------------------------|
G |--7--7--7--7--7--7--7--7----|--5--------5----------------|
D |----------------------------|--3--3--3--3--3--3--3--3----|
pm      .  .     .  .  .  .          .  .     .  .  .  .

   Raise your fist to the music we love               In the name of metal
D |----------------------------|----------------------------|----|
A |----------------------------|----------------------------|----|
F |----------------------------|----------------------------|----|
C |--9--------5----------------|-----------7s---------------|----|
G |--7--7--7--3--3--3--3--3----|--5--------5s---------------|----|
D |----------------------------|--3--3--3-------------------|----|
pm      .  .     .  .  .  .          .  .    

Henrik:
D |-------|-------|----------------------------|----------------------------|-------|
A |-------|-------|----------------------------|----------------------------|-------|
F |-------|-------|----------------------------|----------------------------|-------|
C |--9----|-------|--9--------5----------------|-----------7----------------|--9----|
G |--7----|--5----|--7--------3----------------|--5--------5----------------|--7----|
D |-------|--3----|----------------------------|--3-------------------------|-------|

D |-------|----------------------------|----------------|-------|-------|
A |-------|----------------------------|----------------|-------|-------|
F |-------|----------------------------|----------------|-------|-------|
C |--5----|--9--------5-----------7----|----------------|--9----|-------|
G |--3----|--7--------3-----------5----|--------5--5----|--7----|--5----|
D |-------|----------------------------|--------3--2----|-------|--3----|

D |----------------------------|----------------------------|----|
A |----------------------------|----------------------------|----|
F |----------------------------|----------------------------|----|
C |--9--------5----------------|-----------7----------------|----|
G |--7--------3----------------|--5--------5----------------|----|
D |----------------------------|--3-------------------------|----|



[Verse 2]
 
   You think i’m ugly looks like a witch
D |----------------------------------------------------|----------------------------------------------------|
A |----------------------------------------------------|----------------------------------------------------|
F |----------------------------------------------------|----------------------------------------------------|
C |----------------------------------------------------|----------------------------------------------------|
G |--7--7--7-----7-----7--7--7-----7-----7--7--7-------|--7--7--7-----7-----7--7--7--7--7-----7--7--7--7----|
D |----------------------------------------------------|----------------------------------------------------|
pm   .  .  .     .     .  .  .     .     .  .  .          .  .  .     .     .  .  .  .  .     .  .  .  .

   I’ll kick your ass like a pussy, bitch!
D |----------------------------------------------------|----------------------------|
A |----------------------------------------------------|----------------------------|
F |----------------------------------------------------|----------------------------|
C |----------------------------------------------------|--5-------------------------|
G |--7--7--7-----7-----7--7--7-----7-----7--7--7-------|--3--------------5--4--2----|
D |----------------------------------------------------|-----------------3--2--0----|
pm   .  .  .     .     .  .  .     .     .  .  .                         .  .  .   

   You call me loser I raise my glass
D |----------------------------------------------------|----------------------------------------------------|
A |----------------------------------------------------|----------------------------------------------------|
F |----------------------------------------------------|----------------------------------------------------|
C |----------------------------------------------------|----------------------------------------------------|
G |--7--7--7-----7-----7--7--7-----7-----7--7--7-------|--7--7--7-----7-----7--7--7--7--7-----7--7--7--7----|
D |----------------------------------------------------|----------------------------------------------------|
pm   .  .  .     .     .  .  .     .     .  .  .          .  .  .     .     .  .  .  .  .     .  .  .  .

  Let’s make a toast you can kiss my ass
D |-------|-------|
A |-------|-------|
F |-------|-------|
C |--7----|--5----|
G |--5----|--3----|
D |-------|-------|


[Pre-chorus]
   
   Metal’s getting hyper
D |----------------------------------------------------|
A |----------------------------------------------------|
F |----------------------------------------------------|
C |----------------------------------------------------|
G |----------------------------------------------------|
D |--5--5--5--5--7--7--7--7--8--8--8--8--5--5--5--5----|
pm   .  .  .  .  .  .  .  .  .  .  .  .  .  .  .  .

   deadly as a viper
D |----------------------------------------------------|
A |----------------------------------------------------|
F |----------------------------------------------------|
C |----------------------------------------------------|
G |----------------------------------------------------|
D |--7--7--7--7--8--8--8--8-|10-10-10-10-7--7--7--7----|
pm   .  .  .  .  .  .  .  .  .  .  .  .  .  .  .  .

   Rise from arma-
D |----------------------------------------------------|
A |----------------------------------------------------|
F |----------------------------------------------------|
C |----------------------------------------------------|
G |----------------------------------------------------|
D |--8--8--8--8--10-10-10-10|-12-12-12-12-8--8--8--8---|
pm   .  .  .  .  .  .  .  .  .  .  .  .  .  .  .  .

   -geddon
D |----------------------------------------------------|
A |----------------------------------------------------|
F |----------------------------------------------------|
C |----------------------------------------------------|
G |----------------------------------------------------|
D |--7--7--7--7--7--7--7--7--5--5--5--5--5--5--5--5----|
pm   .  .  .  .  .  .  .  .  .  .  .  .  .  .  .  .

   Faster than a feight train
D |----------------------------------------------------|
A |----------------------------------------------------|
F |----------------------------------------------------|
C |----------------------------------------------------|
G |----------------------------------------------------|
D |--5--5--5--5--7--7--7--7--8--8--8--8--5--5--5--5----|
pm   .  .  .  .  .  .  .  .  .  .  .  .  .  .  .  .

   stronger than a steel chain
D |----------------------------------------------------|
A |----------------------------------------------------|
F |----------------------------------------------------|
C |----------------------------------------------------|
G |----------------------------------------------------|
D |--7--7--7--7--8--8--8--8--|10-10-10-10-7--7--7--7---|
pm   .  .  .  .  .  .  .  .  .  .  .  .  .  .  .  .

   Screaming voices 
D |----------------------------------------------------|
A |----------------------------------------------------|
F |----------------------------------------------------|
C |----------------------------------------------------|
G |--------------------------------------10-10-10-10---|
D |--8--8--8--8--10-10-10-10-|12-12-12-12--------------|
pm   .  .  .  .  .  .  .  .  .  .  .  .  .  .  .  .

   roar!
Henrik:
D |----------------------------------------------------|----------------|
A |----------------------------------------------------|----------------|
F |----------------------------------------------------|----------------|
C |----------------------------------------------------|----------------|
G |--9--10-9--10-9--10-9--10-9--10-9--10-9--10-9--10---|--9~----5--5----|
D |----------------------------------------------------|--------3--2----|

Tomas:
D |----------------------------------------------------|----------------|
A |--10-12-10-12-10-12-10-12-10-12-10-12-10-12-10-12---|--10~-----------|
F |----------------------------------------------------|----------------|
C |----------------------------------------------------|----------------|
G |----------------------------------------------------|--------5--5----|
D |----------------------------------------------------|--------3--2----|


[Chorus]
  
Tomas:
   In the name of metal
D |----------------------------|----------------------------|
A |----------------------------|----------------------------|
F |----------------------------|----------------------------|
C |--9--------9----------------|----------------------------|
G |--7--7--7--7--7--7--7--7----|--5--------5----------------|
D |----------------------------|--3--3--3--3--3--3--3--3----|
pm      .  .     .  .  .  .          .  .     .  .  .  .

   Raise your fist to the heaven above
D |----------------------------|----------------------------|
A |----------------------------|----------------------------|
F |----------------------------|----------------------------|
C |--9--------5----------------|-----------7----------------|
G |--7--7--7--3--3--3--3--3----|--5--------5--5--5--5--5----|
D |----------------------------|--3--3--3-------------------|
pm      .  .     .  .  .  .          .  .     .  .  .  .

   In the name of metal
D |----------------------------|----------------------------|
A |----------------------------|----------------------------|
F |----------------------------|----------------------------|
C |--9--------9----------------|--5--------5----------------|
G |--7--7--7--7--7--7--7--7----|--3--3--3--3--3--3--3--3----|
D |----------------------------|----------------------------|
pm      .  .     .  .  .  .          .  .     .  .  .  .

   Raise your fist and shout
D |----------------------------|----------------------------|
A |----------------------------|----------------------------|
F |----------------------------|----------------------------|
C |--9--------5-----------7----|----------------------------|
G |--7--7--7--3--3--3--3--5----|--5--5--5--5--5-----5-------|
D |----------------------------|--------------3-----2-------|
pm      .  .     .  .  .  .       .  .  .  .

   In the name of metal
D |----------------------------|----------------------------|
A |----------------------------|----------------------------|
F |----------------------------|----------------------------|
C |--9--------9----------------|----------------------------|
G |--7--7--7--7--7--7--7--7----|--5--------5----------------|
D |----------------------------|--3--3--3--3--3--3--3--3----|
pm      .  .     .  .  .  .          .  .     .  .  .  .

   Raise your fist to the music we love               In the name of metal
D |----------------------------|----------------------------|----|
A |----------------------------|----------------------------|----|
F |----------------------------|----------------------------|----|
C |--9--------5----------------|-----------7s---------------|----|
G |--7--7--7--3--3--3--3--3----|--5--------5s---------------|----|
D |----------------------------|--3--3--3-------------------|----|
pm      .  .     .  .  .  .          .  .    

Henrik:
D |-------|-------|----------------------------|----------------------------|-------|
A |-------|-------|----------------------------|----------------------------|-------|
F |-------|-------|----------------------------|----------------------------|-------|
C |--9----|-------|--9--------5----------------|-----------7----------------|--9----|
G |--7----|--5----|--7--------3----------------|--5--------5----------------|--7----|
D |-------|--3----|----------------------------|--3-------------------------|-------|

D |-------|----------------------------|----------------|-------|-------|
A |-------|----------------------------|----------------|-------|-------|
F |-------|----------------------------|----------------|-------|-------|
C |--5----|--9--------5-----------7----|----------------|--9----|-------|
G |--3----|--7--------3-----------5----|--------5--5----|--7----|--5----|
D |-------|----------------------------|--------3--2----|-------|--3----|

D |----------------------------|----------------------------|----|
A |----------------------------|----------------------------|----|
F |----------------------------|----------------------------|----|
C |--9--------5----------------|-----------7----------------|----|
G |--7--------3----------------|--5--------5----------------|----|
D |----------------------------|--3-------------------------|----|


[Rythm under tremolo bar]
(02:58-03:13)
D |----------------------------------------------------|------------------------------------------------|
A |----------------------------------------------------|------------------------------------------------|
F |----------------------------------------------------|------------------------------------------------|
C |--------------9-----------------------------9-------|--------------10----------------------------10--|
G |--7--7--7-----7-----7--7--7-----7-----7--7--7-------|--7--7--7-----7-----7--7--7-----7-----7--7--7---|
D |----------------------------------------------------|------------------------------------------------|
pm   .  .  .           .  .  .     .     .  .             .  .  .           .  .  .     .     .  .

D |----------------------------------------------------|------------------------------------------------|
A |----------------------------------------------------|------------------------------------------------|
F |----------------------------------------------------|------------------------------------------------|
C |--------------12----------------------------12------|--------------9---------------------------------|
G |--7--7--7-----7-----7--7--7-----7-----7--7--7-------|--7--7--7-----7-----------------5-----4-----2---|
D |----------------------------------------------------|--------------------------------3-----2-----0---|
pm   .  .  .           .  .  .     .     .  .             .  .  .                       .     .     .

D |----------------------------------------------------|------------------------------------------------|
A |----------------------------------------------------|------------------------------------------------|
F |----------------------------------------------------|------------------------------------------------|
C |--------------9-----------------------------9-------|--------------8-----------------------------8---|
G |--7--7--7-----7-----7--7--7-----7-----7--7--7-------|--7--7--7-----7-----7--7--7-----7-----7--7--7---|
D |----------------------------------------------------|------------------------------------------------|
pm   .  .  .           .  .  .     .     .  .             .  .  .           .  .  .     .     .  .

D |----------------------------------------------------|------------------------------------------------|
A |----------------------------------------------------|------------------------------------------------|
F |----------------------------------------------------|------------------------------------------------|
C |--------------7-----------------------------7-------|--------------5---------------------------------|
G |--7--7--7-----7-----7--7--7-----7-----7--7--7-------|--7--7--7-----3-----------------5-----4-----2---|
D |----------------------------------------------------|--------------------------------3-----2-----0---|
pm   .  .  .           .  .  .     .     .  .             .  .  .                       .     .     .


[Tremolo Bar]
(02:58-03:13)
D |----------------------------|--10~10~10~10~10~10~10~10~--|
A |--5~-5~-5~-5~-5~-5~-5~-5~---|----------------------------|
F |----------------------------|----------------------------|
C |----------------------------|----------------------------|
G |----------------------------|----------------------------|
D |----------------------------|----------------------------|

D |--5~-5~-5~-5~-5~-5~-5~-5~---|----------------------------|
A |----------------------------|--5~-5~-5~-5~-5~-5~-5~-5~---|
F |----------------------------|----------------------------|
C |----------------------------|----------------------------|
G |----------------------------|----------------------------|
D |----------------------------|----------------------------|

D |--15~15~15~15~15~15~15~15~--|--10~10~10~10~10~10~10~10~--|
A |----------------------------|----------------------------|
F |----------------------------|----------------------------|
C |----------------------------|----------------------------|
G |----------------------------|----------------------------|
D |----------------------------|----------------------------|

D |--5~-5~-5~-5~-5~-5~-5~-5~---|----------------------------|
A |----------------------------|--5~-5~-5~-5~-5~-5~-5~-5~---|
F |----------------------------|----------------------------|
C |----------------------------|----------------------------|
G |----------------------------|----------------------------|
D |----------------------------|----------------------------|


[Heavy riff]
(03:13-03:17)
D |----------------------------------------------------|----------------------------------------------------|
A |----------------------------------------------------|----------------------------------------------------|
F |----------------------------------------------------|----------------------------------------------------|
C |--------------9-----------------9-----------10------|--------7-----------10------------------------------|
G |--7--7--7--7--7-----7--7--7-----7-----7--7--8-------|--8--8--5------5-5--8-----8--8--5-----------4-------|
D |----------------------------------------------------|--------------------------------3-----3--3--2-------|
pm   .  .  .  .        .  .  .           .  .             .  .         . .        .  .        .  .
 

[Rythm under solo]
(03:17-03:46)
D |----------------------------------------------------|
A |----------------------------------------------------|
F |----------------------------------------------------|
C |----------------------------------------------------|
G |----------------------------------------------------|
D |--0--2--2--2--2--2--3--2--2--2--2--2--0--2--2--2----|
pm         .  .  .  .        .  .  .           .  .

D |----------------------------------------------------|
A |----------------------------------------------------|
F |----------------------------------------------------|
C |----------------------------------------------------|
G |----------------------------------------------------|
D |--0--2--2--2--2--2--3--2--2--2--2--2--0-----3-------|
pm         .  .  .  .        .  .  .  .       

D |----------------------------------------------------|----------|
A |----------------------------------------------------|----------|
F |----------------------------------------------------|----------|
C |----------------------------------------------------|--2--5----|
G |----------------------------------------------------|--2--5----|
D |--0--2--2--2--2--2--3--2--2--2--2--2--0--2--2--2----|--0--3----|
pm         .  .  .  .        .  .  .           .  .

D |----------------------------------------------------|
A |----------------------------------------------------|
F |----------------------------------------------------|
C |----------------------------------------------------|
G |----------------------------------------------------|
D |--3--5--5--5--5--5--6--5--5--5--5--5--3--5--5--5----|
pm         .  .  .  .        .  .  .           .  .

D |----------------------------------------------------|
A |----------------------------------------------------|
F |----------------------------------------------------|
C |----------------------------------------------------|
G |----------------------------------------------------|
D |--3--5--5--5--5--5--6--5--5--5--5--5--3-----6-------|
pm         .  .  .  .        .  .  .  .  

D |----------------------------------------------------|----------|
A |----------------------------------------------------|----------|
F |----------------------------------------------------|----------|
C |----------------------------------------------------|-----3----|
G |----------------------------------------------------|--5--1----|
D |--3--5--5--5--5--5--6--5--5--5--5--5--3--5--5--5----|--3-------|
pm         .  .  .  .        .  .  .           .  .

D |----------------------------------------------------|
A |----------------------------------------------------|
F |----------------------------------------------------|
C |----------------------------------------------------|
G |--9-----------------9-----------------9-------------|
D |--7--7--7--7--7--7--7--7--7--7--7--7--7--7--7--7----|
pm         .  .  .  .        .  .  .           .  .

D |----------------------------------------------------|
A |----------------------------------------------------|
F |----------------------------------------------------|
C |----------------------------------------------------|
G |--9-----------------9-----------------9-------------|
D |--7--7--7--7--7--7--7--7--7--7--7--7--7--7--7--7----|
pm         .  .  .  .        .  .  .           .  .

D |----------------------------------------------------|
A |----------------------------------------------------|
F |----------------------------------------------------|
C |----------------------------------------------------|
G |--7-----------------7-----------------7-------------|
D |--5--5--5--5--5--5--5--5--5--5--5--5--5--5--5--5----|
pm         .  .  .  .        .  .  .           .  .

D |----------------------------------------------------|
A |----------------------------------------------------|
F |----------------------------------------------------|
C |----------------------------------------------------|
G |--7-----------------7-----------------7-------------|
D |--5--5--5--5--5--5--5--5--5--5--5--5--5--5--5--5----|
pm         .  .  .  .        .  .  .           .  .

D |----------------------------------------------------|
A |----------------------------------------------------|
F |----------------------------------------------------|
C |----------------------------------------------------|
G |--5-----------------5-----------------5-------------|
D |--3--3--3--3--3--3--3--3--3--3--3--3--3--3--3--3----|
pm         .  .  .  .        .  .  .           .  .

D |----------------------------------------------------|
A |----------------------------------------------------|
F |----------------------------------------------------|
C |----------------------------------------------------|
G |--5-----------------5-----------------5-------------|
D |--3--3--3--3--3--3--3--3--3--3--3--3--3--3--3--3----|
pm         .  .  .  .        .  .  .           .  .

[Henrik]
D |----------------------------------------------------|----------------|
A |----------------------------------------------------|----------------|
F |----------------------------------------------------|----------------|
C |----------------------------------------------------|----------------|
G |--9--10-9--10-9--10-9--10-9--10-9--10-9--10-9--10---|--9~----5--5----|
D |----------------------------------------------------|--------3--2----|

[Thomas]
D |----------------------------------------------------|----------------|
A |--10-12-10-12-10-12-10-12-10-12-10-12-10-12-10-12---|--10~-----------|
F |----------------------------------------------------|----------------|
C |----------------------------------------------------|----------------|
G |----------------------------------------------------|--------5--5----|
D |----------------------------------------------------|--------3--2----|


[Chorus]
  
Tomas:
   In the name of metal
D |----------------------------|----------------------------|
A |----------------------------|----------------------------|
F |----------------------------|----------------------------|
C |--9--------9----------------|----------------------------|
G |--7--7--7--7--7--7--7--7----|--5--------5----------------|
D |----------------------------|--3--3--3--3--3--3--3--3----|
pm      .  .     .  .  .  .          .  .     .  .  .  .

   Raise your fist to the heaven above
D |----------------------------|----------------------------|
A |----------------------------|----------------------------|
F |----------------------------|----------------------------|
C |--9--------5----------------|-----------7----------------|
G |--7--7--7--3--3--3--3--3----|--5--------5--5--5--5--5----|
D |----------------------------|--3--3--3-------------------|
pm      .  .     .  .  .  .          .  .     .  .  .  .

   In the name of metal
D |----------------------------|----------------------------|
A |----------------------------|----------------------------|
F |----------------------------|----------------------------|
C |--9--------9----------------|--5--------5----------------|
G |--7--7--7--7--7--7--7--7----|--3--3--3--3--3--3--3--3----|
D |----------------------------|----------------------------|
pm      .  .     .  .  .  .          .  .     .  .  .  .

   Raise your fist and shout
D |----------------------------|----------------------------|
A |----------------------------|----------------------------|
F |----------------------------|----------------------------|
C |--9--------5-----------7----|----------------------------|
G |--7--7--7--3--3--3--3--5----|--5--5--5--5--5-----5-------|
D |----------------------------|--------------3-----2-------|
pm      .  .     .  .  .  .       .  .  .  .

   In the name of metal
D |----------------------------|----------------------------|
A |----------------------------|----------------------------|
F |----------------------------|----------------------------|
C |--9--------9----------------|----------------------------|
G |--7--7--7--7--7--7--7--7----|--5--------5----------------|
D |----------------------------|--3--3--3--3--3--3--3--3----|
pm      .  .     .  .  .  .          .  .     .  .  .  .

   Raise your fist to the music we love               In the name of metal
D |----------------------------|----------------------------|----|
A |----------------------------|----------------------------|----|
F |----------------------------|----------------------------|----|
C |--9--------5----------------|-----------7s---------------|----|
G |--7--7--7--3--3--3--3--3----|--5--------5s---------------|----|
D |----------------------------|--3--3--3-------------------|----|
pm      .  .     .  .  .  .          .  .    

Henrik:
D |-------|-------|----------------------------|----------------------------|-------|
A |-------|-------|----------------------------|----------------------------|-------|
F |-------|-------|----------------------------|----------------------------|-------|
C |--9----|-------|--9--------5----------------|-----------7----------------|--9----|
G |--7----|--5----|--7--------3----------------|--5--------5----------------|--7----|
D |-------|--3----|----------------------------|--3-------------------------|-------|

D |-------|----------------------------|----------------|-------|-------|
A |-------|----------------------------|----------------|-------|-------|
F |-------|----------------------------|----------------|-------|-------|
C |--5----|--9--------5-----------7----|----------------|--9----|-------|
G |--3----|--7--------3-----------5----|--------5--5----|--7----|--5----|
D |-------|----------------------------|--------3--2----|-------|--3----|

D |----------------------------|----------------------------|----|
A |----------------------------|----------------------------|----|
F |----------------------------|----------------------------|----|
C |--9--------5----------------|-----------7----------------|----|
G |--7--------3----------------|--5--------5----------------|----|
D |----------------------------|--3-------------------------|----|


***********************************

Legend
~ - vibrato
pm - palm mute
. - muted notes
s - slide

***********************************
Suggest correction
Creating personal tab
Creating personal tab
You can edit any tab online and save it as your Personal.

You can edit, replace or remove any tab part or add personal notes – all changes will be seen only by you.

Personal tabs can be accessed anytime from any device, even offline.
Learn more »
Give kudos to tab author, rate the tab!
1 2 3 4 5
comments
print report bad tab
guest
You may want to rate the tab now too:
select rating
Wanna post a correction for this tab? Suggest correction