Oops, an error
Loading. Please wait.

Top Of The Mountain chords

37 views 1 this week
no commentswrite comment
1 2 3 4 5
3 more votes to show rating
add to favorites
×
Save as Personal and add changes to this tab that will be seen only by you. Learn more ›
×
You can save this tab as Personal to edit and correct it or add notes. All changes will be seen only by you. Learn more »
launch autoscroll
font size
0
reset
transpose
0
reset
simplify chords
display chords
guitar tuner
edit
Autoscroll
slow
fast
+/-
esc
set tempo
stop
Strumming
There is no strumming pattern for this song yet. and get +5 IQ
[Intro]
   Am                                G
e|---------------------------------|-3-------------------------------|
B|-1---0-----1-----3-----1----0----|-3---0-----1-----3-----1----0----|
G|-2-------------------------------|---------------------------------|
D|-2-------------------------------|---------------------------------|
A|-0-------------------------------|-2-------------------------------|
E|---------------------------------|-3-------------------------------|
   1 e + e 2 e + e 3 e + e 4 e + e | 1 e + e 2 e + e 3 e + e 4 e + e |

   F                                 Esus4           E
e|-1-------------------------------|-------0---------------0---------|
B|-1---0-----1-----3-----1----0----|-0---------0-----0---------0-----|
G|-2-------------------------------|-2-----------2---1-----------1---|
D|-3-------------------------------|-2---------------2---------------|
A|-3-------------------------------|-2---------------2---------------|
E|-1-------------------------------|---------------------------------|
   1 e + e 2 e + e 3 e + e 4 e + e | 1 e + e 2 e + e 3 e + e 4 e + e |

[Verse 1]
Am              G                    F
I remember when you came knocking on my door
  Esus4            E
I wouldn't let you in
Am                G
I kept hiding but you kept trying
    F              Esus4   E
And now my life is so much more
Dm          E           F                 E
Hold me and believe me, on your Word I'll stand
Dm         E     F            G7
Love me forever, make me understand

[Verse 2]
Am               G                   F
Every morning my heart is singing of your love
Esus4       E
Renewing my soul
Am                    G                    F
I will praise you and lift my hands to you Lord
     Esus4         E
I'll never let you go
Dm            E       F                 E
Search me and know me on Your word I'll stand
Dm           E       F              G5
Guide me and hide me in Your mighty hands

[Chorus]
       Am                      Am
I will climb to the top of the mountain
      F             G
on my knees just to be with you
       Am                       Am
I will ride on the wings of the wind
           F          G
'Cause I believe, I believe in You

[Verse 3]
Am              G                    F
I remember when you came knocking at my door
  Esus4            E
I wouldn't let you in
Am                G
I kept hiding but you kept trying
F                  Esus4   E
And now my life is so much more
Dm          E           F                 E
Hold me and believe me, on Your Word I'll stand
Dm         E     F            G7
Love me forever, make me understand


Dm          E           F                 E
Hold me and believe me, on Your Word I'll stand
Dm         E     F            G7
Love me forever, make me understand

            
            
Suggest correction
Creating personal tab
Creating personal tab
You can edit any tab online and save it as your Personal.

You can edit, replace or remove any tab part or add personal notes – all changes will be seen only by you.

Personal tabs can be accessed anytime from any device, even offline.
Learn more »
Give kudos to tab author, rate the tab!
1 2 3 4 5
comments
print report bad tab
guest
You may want to rate the tab now too:
select rating
Wanna post a correction for this tab? Suggest correction