Oops, an error
Loading. Please wait.

Altogether Ooky Tab

version 2
version 2

Whole song

Interactive

3,845 views 3 this week
no commentswrite comment
1 2 3 4 5
excellent!
x 4
add to favorites
launch autoscroll
font size
0
reset
how to read this tab
guitar tuner
Autoscroll
slow
fast
+/-
esc
set tempo
stop
Help us to improve Ultimate-Guitar.com Take our survey!
×
Difficulty
intermediate
INTRO

Rythm Guitar (distortion)
e|--------||--------|--------|--------|--------||
B|--------||--------|--------|--------|--------||
G|--------||--------|77777777|--------|55555555||
D|--------||33333333|77777777|77777777|55555555||
A|--------||33333333|55555555|77777777|33333333||
E|--------||11111111|--------|55555555|--------||
                                    
Keyboard                                   [1.        ][2. 
e|---------||8------10-|8---------|8-------|----------||-----------|---------|
B|---------||----10----|----10-11-|--------|8-811-10-8||8-811-10---|---------|
G|---------||----------|----------|--------|----------||-----------|10-------|
D|------10-||----------|----------|--------|----------||---------10|---------|
A|---------||----------|----------|--------|----------||-----------|---------|
E|---------||----------|----------|--------|----------||-----------|---------|


VERSE

Rythm Guitar (clean)                                    [1.               ]
e||--------|--------|--------|--------|--------|--------|--------|--------||
B||--------|--------|--------|--------|--------|--------|--------|--------||
G||--------|--------|--------|--------|--------|77x777x7|--------|--------||
D||33x333x3|33x333x3|77x777x7|77x777x7|33x333x3|77x777x7|77x777x7|77x777x7||
A||33x333x3|33x333x3|77x777x7|77x777x7|33x333x3|55x555x5|77x777x7|77x777x7||
E||11x111x1|11x111x1|55x555x5|55x555x5|11x111x1|--------|55x555x5|55x555x5||

                                                         [2.
                                                         |--------|--------|
                                                         |--------|88888---|
                                                         |99999999|--------|
                                                         |--------|--------|
                                                         |--------|--------|
                                                         |--------|--------|

Solo Guitar (distortion)
e|--------|--------|--------|--------|--------|--------|--------|--------|
B|--------|--------|--------|--------|--------|--------|--------|----8---|
G|--------|--------|-----9--|----0---|--------|--------|-----9--|--------|
D|--------|--------|--7-----|10------|--------|--------|--7-----|10------|
A|--------|--------|--------|--------|--------|--------|--------|--------|
E|--------|--------|--------|--------|--------|--------|--------|--------|

                                                   Play 7 times
                                                  ||----------||---------|
                                                  ||----------||---------|
                                                  ||99--------||99-------|
                                                  ||--77101077||--7710---|
                                                  ||----------||---------|
                                                  ||----------||---------|


CHORUS

Rhythm Guitar (distortion)
e|--------|--------|--------|--------|--------|--------|--------|--------|
B|--------|--------|--------|--------|--------|--------|--------|--------|
G|--------|--------|55555555|55555555|--------|77777777|--------|--------|
D|33333333|33333333|55555555|55555555|33333333|77777777|77777777|77777777|
A|33333333|33333333|33333333|33333333|33333333|55555555|77777777|77777777|
E|11111111|11111111|--------|--------|11111111|--------|55555555|55555555|



LAST CHORUS

Rhythm Guitar (distortion)
e|--------|--------|--------|--------|--------|--------|--------|--------|
B|--------|--------|--------|--------|--------|--------|--------|--------|
G|--------|--------|55555555|55555555|--------|77777777|--------|55555555|
D|33333333|33333333|55555555|55555555|33333333|77777777|77777777|55555555|
A|33333333|33333333|33333333|33333333|33333333|55555555|77777777|33333333|
E|11111111|11111111|--------|--------|11111111|--------|55555555|--------|

Solo Guitar (distortion)
e|--------|--------|--------|--------|--------|--------|--------|---------|
e|--------|--------|--------|--------|--------|--------|--------|888888810|
e|--------|--------|--------|--------|--------|--------|99999999|---------|
e|--------|--------|--------|--------|--------|--------|--------|---------|
e|--------|--------|--------|--------|--------|--------|--------|---------|
e|--------|--------|--------|--------|--------|--------|--------|---------|


OUTRO

Rhythm Guitar (distortion)
                                                              Play until end
e||--------|--------|--------|--------|--------|--------|--------|--------||
B||--------|--------|--------|--------|--------|--------|--------|--------||
G||--------|--------|--------|--------|--------|77777777|--------|--------||
D||33333333|33333333|77777777|77777777|33133333|77777777|77777777|77777777||
A||33333333|33333333|77777777|77777777|33133333|55555555|77777777|77777777||
E||11111111|11111131|55555555|55555555|11111111|--------|55555575|55555555||

Solo Guitar 1 (distortion)  
         Play until end
e||--------|---------||       
B||--------|888888810||
G||99999999|---------||
D||--------|---------||
A||--------|---------||
E||--------|---------||

Solo Guitar 2 (distortion)
 Play until end
e||----------||
B||99--------||
G||--77101077||
D||----------||
A||----------||
E||----------||


Intro 

Verse

Chorus

Intro

Verse

Chorus 

Last Chorus

Outro
Suggest correction
comments
print report bad tab
guest
You may want to rate the tab now too:
select rating
Please do not post tabs as comments. Select "correction" instead!