Oops, an error
Loading. Please wait.

Farting With A Walkman On bass

version 1
version 1

Whole song

Interactive

675 views 1 this week
1 commentread comment
1 2 3 4 5
3 more votes to show rating
add to favorites
×
Save as Personal and add changes to this tab that will be seen only by you. Learn more ›
×
You can save this tab as Personal to edit and correct it or add notes. All changes will be seen only by you. Learn more »
launch autoscroll
font size
0
reset
guitar tuner
edit
Autoscroll
slow
fast
+/-
esc
set tempo
stop
Author
Difficulty
Band - Bloodhound Gang
CD - Hefty Fine
Bassist - "Evil" Jared Hasselhof
Tabber - Mathiaes


Intro and Verse (You can hear when the bass comes in and how much it'll play)

G|----------------------------------------------------------------|
D|----------------------------------------------------------------|
A|2-2-2-2-2-2-2-2-2-2-2-2-2-2-2-2---------------------------------|
E|--------------------------------4-4-4-4-4-4-4-4-4-4-4-4-4-4-4-4-|

G|----------------------------------------------------------------|
D|----------------------------------------------------------------|
A|2-2-2-2-2-2-2-2-2-2-2-2-2-2-2-2---------------------------------|
E|--------------------------------4-4-4-4-4-4-4-4-4-4-4-4-4-4-4-4-|

G|----------------------------------------------------------------|
D|----------------------------------------------------------------|
A|----------------------------------------------------------------|
E|2-2-2-2-2-2-2-2-2-2-2-2-2-2-2-2-4-4-4-4-4-4-4-4-4-4-4-4-4-4-4-4-|

G|----------------------------------------------------------------|
D|----------------------------------------------------------------|
A|--------------------------------2-2-2-2-2-2-2-2-----------------|
E|2-2-2-2-2-2-2-2-0-0-0-0-0-0-0-0-----------------2-2-2-2-2-2-2-2-|

Outro

G|-------------------------------|
D--------------------------------|
A|2-2-2-2-2-2-2-2-2-2-2-2--------|
E|-----------------------2-2-2-2-| (3x)

G|-------------------------------|
D|-------------------------------|
A|2-2-2-2-2-2-2-2-2-2-2-2-2-2-2-2|
E|-------------------------------|

Please rate and comment :D

            
            
Suggest correction
Creating personal tab
Creating personal tab
You can edit any tab online and save it as your Personal.

You can edit, replace or remove any tab part or add personal notes – all changes will be seen only by you.

Personal tabs can be accessed anytime from any device, even offline.
Learn more »
Give kudos to tab author, rate the tab!
1 2 3 4 5
comments
print report bad tab
1 comment total.
0 reply
Davitzo 16 Oct 02, 2007 04:24 AM

this song should be in Eb tuning the way u've tabbed it, otherwise pretty much correct :)

guest
You may want to rate the tab now too:
select rating
Wanna post a correction for this tab? Suggest correction