Oops, an error
Loading. Please wait.

Foxtrot Uniform Charlie Kilo tab

version 1
279,890 views 204 this week
50 commentsread comments
1 2 3 4 5
x 176
add to favorites
×
Save as Personal and add changes to this tab that will be seen only by you. Learn more ›
×
You can save this tab as Personal to edit and correct it or add notes. All changes will be seen only by you. Learn more »
launch autoscroll
font size
0
reset
how to read this tab
guitar tuner
edit
Autoscroll
slow
fast
+/-
esc
set tempo
stop
Author
Song - Foxtrot Uniform Charlie Kilo
Band - Bloodhound Gang
Tabbed by atticusblinkste
I am about 100% sure on this one


[Intro/Outro]

e|-----------------------------------------------------------------|
B|-----------------------------------------------------------------|
G|-----------------------------------------------------------------|
D|------88--6--------88-----------88--6------99--8-----------------|
A|--99-----------66-------9----------------------------------------|
E|------------------------------66---------99----------------------|


[Verse]

e|-------------------------------------------------------------------------|
B|-------------------------------------------------------------------------|
G|---11-11---11-11----8---8----8---8---------------------------------------|
D|---11-11---11-11----8---8----8---8----8---8---8---8-----11--11---11--11--|
A|---9--9----9--9-----6---6----6---6----8---8---8---8-----11--11---11--11--|
E|--------------------------------------6---6---6---6-----9---9----9---9---|


[Pre-Chorus]

e|------------------------------------------------------|
B|------------------------------------------------------|
G|--------------------11-11-11-11-----------------------|
D|--9-9-9-9-9-9-9-9---11-11-11-11---11-11-11-11---------|
A|--9-9-9-9-9-9-9-9---9--9--9--9----11-11-11-11---------|
E|--7-7-7-7-7-7-7-7-----------------9--9--9--9----------|


[Chorus/Outro]

Same chord progression as verse just strum rolling 8th notes


Thats pretty much it you should be able to figure out rhythm,etc. by listening to the song.
Suggest correction
Creating personal tab
Creating personal tab
You can edit any tab online and save it as your Personal.

You can edit, replace or remove any tab part or add personal notes – all changes will be seen only by you.

Personal tabs can be accessed anytime from any device, even offline.
Learn more »
comments
print report bad tab
50 comments total. Showing first comments.
0 reply
Pertoleum 10 Aug 12, 2005 08:00 PM

semms right- kik ass song anways

+1 reply
inkstainedmind 10 Aug 15, 2005 08:00 PM

It's about 95% percent right dude, nice tab. When he does the second prechorus though, I believe that instead of going to the A-string and playing 11/9, he actually stays on the E, and plays 6 on the E, 6 on the A and 8 on the D. Makes it sound a little more grungy.

i.e.
e------------------------------------------------------|
b------------------------------------------------------|
g------------------------------------------------------|
d--9-9-9-9-9-9-9-9---8--8--8--8----11-11-11-11---------|
a--9-9-9-9-9-9-9-9---6--6--6--6----11-11-11-11---------|
e--7-7-7-7-7-7-7-7---6--6--6--6----9--9--9--9----------|

Go put the you know what in the you know where.

0 reply
damanref10 10 Sep 07, 2005 08:00 PM

i think its almost perfect, except during the verse the pattern should be 2-3...not 2-2 . Great tab though

guest
You may want to rate the tab now too:
select rating
Wanna post a correction for this tab? Suggest correction